  0
SECTION
  2
HEADER
  9
$ACADVER
  1
AC1009
  9
$EXTMIN
 10
0.0
 20
0.0
 30
0.0
  9
$EXTMAX
 10
1000.0
 20
1000.0
 30
0.0
  9
$FILLMODE
 70
 0
  9
$SPLFRAME
 70
 1
  0
ENDSEC
  0
SECTION
  2
TABLES
  0
TABLE
  2
LAYER
 70
1
  0
LAYER
  2
0
 70
     0
 62
     7
  6
CONTINUOUS
  0
ENDTAB
  0
ENDSEC
  0
SECTION
  2
ENTITIES
  0
POLYLINE
  8
0
 62
     9
 66
     1
 10
0
 20
0
 30
0.0
 70
     1
 40
0
 41
0
  0
VERTEX
  8
0
 10
1.89367
 20
3.29004
 30
0.0
 40
0
 41
0
  0
VERTEX
  8
0
 10
1.89367
 20
2.88271
 30
0.0
 40
0
 41
0
  0
VERTEX
  8
0
 10
2.29378
 20
2.88271
 30
0.0
 40
0
 41
0
  0
VERTEX
  8
0
 10
2.29378
 20
3.21951
 30
0.0
 40
0
 41
0
  0
VERTEX
  8
0
 10
2.42725
 20
3.21951
 30
0.0
 40
0
 41
0
  0
VERTEX
  8
0
 10
2.42725
 20
3.37804
 30
0.0
 40
0
 41
0
  0
VERTEX
  8
0
 10
2.4585
 20
3.37983
 30
0.0
 40
0
 41
0
  0
VERTEX
  8
0
 10
2.55176
 20
3.39387
 30
0.0
 40
0
 41
0
  0
VERTEX
  8
0
 10
2.65597
 20
3.42583
 30
0.0
 40
0
 41
0
  0
VERTEX
  8
0
 10
2.74018
 20
3.47364
 30
0.0
 40
0
 41
0
  0
VERTEX
  8
0
 10
2.80496
 20
3.53678
 30
0.0
 40
0
 41
0
  0
VERTEX
  8
0
 10
2.85064
 20
3.61507
 30
0.0
 40
0
 41
0
  0
VERTEX
  8
0
 10
2.87776
 20
3.70811
 30
0.0
 40
0
 41
0
  0
VERTEX
  8
0
 10
2.88672
 20
3.81549
 30
0.0
 40
0
 41
0
  0
VERTEX
  8
0
 10
2.88206
 20
3.90679
 30
0.0
 40
0
 41
0
  0
VERTEX
  8
0
 10
2.87799
 20
3.93685
 30
0.0
 40
0
 41
0
  0
VERTEX
  8
0
 10
2.97954
 20
3.93685
 30
0.0
 40
0
 41
0
  0
VERTEX
  8
0
 10
2.99397
 20
4.00222
 30
0.0
 40
0
 41
0
  0
VERTEX
  8
0
 10
3.04676
 20
4.19613
 30
0.0
 40
0
 41
0
  0
VERTEX
  8
0
 10
3.12858
 20
4.42253
 30
0.0
 40
0
 41
0
  0
VERTEX
  8
0
 10
3.22889
 20
4.61919
 30
0.0
 40
0
 41
0
  0
VERTEX
  8
0
 10
3.35157
 20
4.78901
 30
0.0
 40
0
 41
0
  0
VERTEX
  8
0
 10
3.50043
 20
4.93506
 30
0.0
 40
0
 41
0
  0
VERTEX
  8
0
 10
3.67936
 20
5.06022
 30
0.0
 40
0
 41
0
  0
VERTEX
  8
0
 10
3.89214
 20
5.16764
 30
0.0
 40
0
 41
0
  0
VERTEX
  8
0
 10
4.07915
 20
5.23996
 30
0.0
 40
0
 41
0
  0
VERTEX
  8
0
 10
4.14274
 20
5.26014
 30
0.0
 40
0
 41
0
  0
VERTEX
  8
0
 10
4.14274
 20
5.41271
 30
0.0
 40
0
 41
0
  0
VERTEX
  8
0
 10
4.16168
 20
5.41607
 30
0.0
 40
0
 41
0
  0
VERTEX
  8
0
 10
4.21724
 20
5.43414
 30
0.0
 40
0
 41
0
  0
VERTEX
  8
0
 10
4.28776
 20
5.47054
 30
0.0
 40
0
 41
0
  0
VERTEX
  8
0
 10
4.35053
 20
5.52013
 30
0.0
 40
0
 41
0
  0
VERTEX
  8
0
 10
4.40169
 20
5.58094
 30
0.0
 40
0
 41
0
  0
VERTEX
  8
0
 10
4.4375
 20
5.65126
 30
0.0
 40
0
 41
0
  0
VERTEX
  8
0
 10
4.4541
 20
5.72911
 30
0.0
 40
0
 41
0
  0
VERTEX
  8
0
 10
4.44775
 20
5.81267
 30
0.0
 40
0
 41
0
  0
VERTEX
  8
0
 10
4.42557
 20
5.87972
 30
0.0
 40
0
 41
0
  0
VERTEX
  8
0
 10
4.41461
 20
5.90007
 30
0.0
 40
0
 41
0
  0
VERTEX
  8
0
 10
4.59256
 20
5.90007
 30
0.0
 40
0
 41
0
  0
VERTEX
  8
0
 10
4.59256
 20
6.33192
 30
0.0
 40
0
 41
0
  0
VERTEX
  8
0
 10
4.24962
 20
6.30647
 30
0.0
 40
0
 41
0
  0
VERTEX
  8
0
 10
1.89367
 20
3.29004
 30
0.0
 40
0
 41
0
  0
SEQEND
 8
0
  0
POLYLINE
  8
0
 62
     0
 66
     1
 10
0
 20
0
 30
0.0
 70
     1
 40
1.00006
 41
1.00006
  0
VERTEX
  8
0
 10
1.89367
 20
3.29004
 30
0.0
 40
0.0138897
 41
0.0138897
  0
VERTEX
  8
0
 10
1.89367
 20
2.88271
 30
0.0
 40
0.0138897
 41
0.0138897
  0
VERTEX
  8
0
 10
2.29378
 20
2.88271
 30
0.0
 40
0.0138897
 41
0.0138897
  0
VERTEX
  8
0
 10
2.29378
 20
3.21951
 30
0.0
 40
0.0138897
 41
0.0138897
  0
VERTEX
  8
0
 10
2.42725
 20
3.21951
 30
0.0
 40
0.0138897
 41
0.0138897
  0
VERTEX
  8
0
 10
2.42725
 20
3.37804
 30
0.0
 40
0.0138897
 41
0.0138897
  0
VERTEX
  8
0
 10
2.4585
 20
3.37983
 30
0.0
 40
0.0138897
 41
0.0138897
  0
VERTEX
  8
0
 10
2.55176
 20
3.39387
 30
0.0
 40
0.0138897
 41
0.0138897
  0
VERTEX
  8
0
 10
2.65597
 20
3.42583
 30
0.0
 40
0.0138897
 41
0.0138897
  0
VERTEX
  8
0
 10
2.74018
 20
3.47364
 30
0.0
 40
0.0138897
 41
0.0138897
  0
VERTEX
  8
0
 10
2.80496
 20
3.53678
 30
0.0
 40
0.0138897
 41
0.0138897
  0
VERTEX
  8
0
 10
2.85064
 20
3.61507
 30
0.0
 40
0.0138897
 41
0.0138897
  0
VERTEX
  8
0
 10
2.87776
 20
3.70811
 30
0.0
 40
0.0138897
 41
0.0138897
  0
VERTEX
  8
0
 10
2.88672
 20
3.81549
 30
0.0
 40
0.0138897
 41
0.0138897
  0
VERTEX
  8
0
 10
2.88206
 20
3.90679
 30
0.0
 40
0.0138897
 41
0.0138897
  0
VERTEX
  8
0
 10
2.87799
 20
3.93685
 30
0.0
 40
0.0138897
 41
0.0138897
  0
VERTEX
  8
0
 10
2.97954
 20
3.93685
 30
0.0
 40
0.0138897
 41
0.0138897
  0
VERTEX
  8
0
 10
2.99397
 20
4.00222
 30
0.0
 40
0.0138897
 41
0.0138897
  0
VERTEX
  8
0
 10
3.04676
 20
4.19613
 30
0.0
 40
0.0138897
 41
0.0138897
  0
VERTEX
  8
0
 10
3.12858
 20
4.42253
 30
0.0
 40
0.0138897
 41
0.0138897
  0
VERTEX
  8
0
 10
3.22889
 20
4.61919
 30
0.0
 40
0.0138897
 41
0.0138897
  0
VERTEX
  8
0
 10
3.35157
 20
4.78901
 30
0.0
 40
0.0138897
 41
0.0138897
  0
VERTEX
  8
0
 10
3.50043
 20
4.93506
 30
0.0
 40
0.0138897
 41
0.0138897
  0
VERTEX
  8
0
 10
3.67936
 20
5.06022
 30
0.0
 40
0.0138897
 41
0.0138897
  0
VERTEX
  8
0
 10
3.89214
 20
5.16764
 30
0.0
 40
0.0138897
 41
0.0138897
  0
VERTEX
  8
0
 10
4.07915
 20
5.23996
 30
0.0
 40
0.0138897
 41
0.0138897
  0
VERTEX
  8
0
 10
4.14274
 20
5.26014
 30
0.0
 40
0.0138897
 41
0.0138897
  0
VERTEX
  8
0
 10
4.14274
 20
5.41271
 30
0.0
 40
0.0138897
 41
0.0138897
  0
VERTEX
  8
0
 10
4.16168
 20
5.41607
 30
0.0
 40
0.0138897
 41
0.0138897
  0
VERTEX
  8
0
 10
4.21724
 20
5.43414
 30
0.0
 40
0.0138897
 41
0.0138897
  0
VERTEX
  8
0
 10
4.28776
 20
5.47054
 30
0.0
 40
0.0138897
 41
0.0138897
  0
VERTEX
  8
0
 10
4.35053
 20
5.52013
 30
0.0
 40
0.0138897
 41
0.0138897
  0
VERTEX
  8
0
 10
4.40169
 20
5.58094
 30
0.0
 40
0.0138897
 41
0.0138897
  0
VERTEX
  8
0
 10
4.4375
 20
5.65126
 30
0.0
 40
0.0138897
 41
0.0138897
  0
VERTEX
  8
0
 10
4.4541
 20
5.72911
 30
0.0
 40
0.0138897
 41
0.0138897
  0
VERTEX
  8
0
 10
4.44775
 20
5.81267
 30
0.0
 40
0.0138897
 41
0.0138897
  0
VERTEX
  8
0
 10
4.42557
 20
5.87972
 30
0.0
 40
0.0138897
 41
0.0138897
  0
VERTEX
  8
0
 10
4.41461
 20
5.90007
 30
0.0
 40
0.0138897
 41
0.0138897
  0
VERTEX
  8
0
 10
4.59256
 20
5.90007
 30
0.0
 40
0.0138897
 41
0.0138897
  0
VERTEX
  8
0
 10
4.59256
 20
6.33192
 30
0.0
 40
0.0138897
 41
0.0138897
  0
VERTEX
  8
0
 10
4.24962
 20
6.30647
 30
0.0
 40
0.0138897
 41
0.0138897
  0
VERTEX
  8
0
 10
1.89367
 20
3.29004
 30
0.0
 40
0.0138897
 41
0.0138897
  0
SEQEND
 8
0
  0
POLYLINE
  8
0
 62
     0
 66
     1
 10
0
 20
0
 30
0.0
 70
     1
 40
0.50003
 41
0.50003
  0
VERTEX
  8
0
 10
1.89333
 20
3.75944
 30
0.0
 40
0.00694486
 41
0.00694486
  0
VERTEX
  8
0
 10
1.89333
 20
3.67796
 30
0.0
 40
0.00694486
 41
0.00694486
  0
VERTEX
  8
0
 10
1.97336
 20
3.67796
 30
0.0
 40
0.00694486
 41
0.00694486
  0
VERTEX
  8
0
 10
1.97336
 20
3.74533
 30
0.0
 40
0.00694486
 41
0.00694486
  0
VERTEX
  8
0
 10
2.00006
 20
3.74533
 30
0.0
 40
0.00694486
 41
0.00694486
  0
VERTEX
  8
0
 10
2.00006
 20
3.77701
 30
0.0
 40
0.00694486
 41
0.00694486
  0
VERTEX
  8
0
 10
2.01156
 20
3.77767
 30
0.0
 40
0.00694486
 41
0.00694486
  0
VERTEX
  8
0
 10
2.04579
 20
3.78662
 30
0.0
 40
0.00694486
 41
0.00694486
  0
VERTEX
  8
0
 10
2.07557
 20
3.80881
 30
0.0
 40
0.00694486
 41
0.00694486
  0
VERTEX
  8
0
 10
2.09011
 20
3.84304
 30
0.0
 40
0.00694486
 41
0.00694486
  0
VERTEX
  8
0
 10
2.09169
 20
3.87761
 30
0.0
 40
0.00694486
 41
0.00694486
  0
VERTEX
  8
0
 10
2.09017
 20
3.88878
 30
0.0
 40
0.00694486
 41
0.00694486
  0
VERTEX
  8
0
 10
2.11051
 20
3.88878
 30
0.0
 40
0.00694486
 41
0.00694486
  0
VERTEX
  8
0
 10
2.11594
 20
3.91351
 30
0.0
 40
0.00694486
 41
0.00694486
  0
VERTEX
  8
0
 10
2.14031
 20
3.98594
 30
0.0
 40
0.00694486
 41
0.00694486
  0
VERTEX
  8
0
 10
2.1849
 20
4.05925
 30
0.0
 40
0.00694486
 41
0.00694486
  0
VERTEX
  8
0
 10
2.25043
 20
4.1135
 30
0.0
 40
0.00694486
 41
0.00694486
  0
VERTEX
  8
0
 10
2.31922
 20
4.14589
 30
0.0
 40
0.00694486
 41
0.00694486
  0
VERTEX
  8
0
 10
2.34315
 20
4.15349
 30
0.0
 40
0.00694486
 41
0.00694486
  0
VERTEX
  8
0
 10
2.34315
 20
4.18397
 30
0.0
 40
0.00694486
 41
0.00694486
  0
VERTEX
  8
0
 10
2.35064
 20
4.18533
 30
0.0
 40
0.00694486
 41
0.00694486
  0
VERTEX
  8
0
 10
2.37213
 20
4.19553
 30
0.0
 40
0.00694486
 41
0.00694486
  0
VERTEX
  8
0
 10
2.39492
 20
4.21767
 30
0.0
 40
0.00694486
 41
0.00694486
  0
VERTEX
  8
0
 10
2.40539
 20
4.24729
 30
0.0
 40
0.00694486
 41
0.00694486
  0
VERTEX
  8
0
 10
2.40147
 20
4.27403
 30
0.0
 40
0.00694486
 41
0.00694486
  0
VERTEX
  8
0
 10
2.39751
 20
4.28142
 30
0.0
 40
0.00694486
 41
0.00694486
  0
VERTEX
  8
0
 10
2.43311
 20
4.28142
 30
0.0
 40
0.00694486
 41
0.00694486
  0
VERTEX
  8
0
 10
2.43311
 20
4.36778
 30
0.0
 40
0.00694486
 41
0.00694486
  0
VERTEX
  8
0
 10
2.36453
 20
4.36274
 30
0.0
 40
0.00694486
 41
0.00694486
  0
VERTEX
  8
0
 10
1.89333
 20
3.75944
 30
0.0
 40
0.00694486
 41
0.00694486
  0
SEQEND
 8
0
  0
POLYLINE
  8
0
 62
     0
 66
     1
 10
0
 20
0
 30
0.0
 40
0.50003
 41
0.50003
  0
VERTEX
  8
0
 10
1.89378
 20
3.74403
 30
0.0
 40
0.00694486
 41
0.00694486
  0
VERTEX
  8
0
 10
1.89378
 20
4.3666
 30
0.0
 40
0.00694486
 41
0.00694486
  0
VERTEX
  8
0
 10
2.41465
 20
4.3666
 30
0.0
 40
0.00694486
 41
0.00694486
  0
SEQEND
 8
0
  0
POLYLINE
  8
0
 62
     0
 66
     1
 10
0
 20
0
 30
0.0
 70
     1
 40
0
 41
0
  0
VERTEX
  8
0
 10
2.04557
 20
4.43913
 30
0.0
 40
0
 41
0
  0
VERTEX
  8
0
 10
2.04107
 20
4.42671
 30
0.0
 40
0
 41
0
  0
VERTEX
  8
0
 10
2.0031
 20
4.42671
 30
0.0
 40
0
 41
0
  0
VERTEX
  8
0
 10
2.0031
 20
4.42844
 30
0.0
 40
0
 41
0
  0
VERTEX
  8
0
 10
2.00586
 20
4.43099
 30
0.0
 40
0
 41
0
  0
VERTEX
  8
0
 10
2.02556
 20
4.45188
 30
0.0
 40
0
 41
0
  0
VERTEX
  8
0
 10
2.02669
 20
4.45344
 30
0.0
 40
0
 41
0
  0
VERTEX
  8
0
 10
2.02783
 20
4.45508
 30
0.0
 40
0
 41
0
  0
VERTEX
  8
0
 10
2.03353
 20
4.46712
 30
0.0
 40
0
 41
0
  0
VERTEX
  8
0
 10
2.03353
 20
4.47114
 30
0.0
 40
0
 41
0
  0
VERTEX
  8
0
 10
2.03353
 20
4.47368
 30
0.0
 40
0
 41
0
  0
VERTEX
  8
0
 10
2.03039
 20
4.48058
 30
0.0
 40
0
 41
0
  0
VERTEX
  8
0
 10
2.02979
 20
4.48122
 30
0.0
 40
0
 41
0
  0
VERTEX
  8
0
 10
2.02914
 20
4.48188
 30
0.0
 40
0
 41
0
  0
VERTEX
  8
0
 10
2.02285
 20
4.48514
 30
0.0
 40
0
 41
0
  0
VERTEX
  8
0
 10
2.02078
 20
4.48514
 30
0.0
 40
0
 41
0
  0
VERTEX
  8
0
 10
2.01861
 20
4.48514
 30
0.0
 40
0
 41
0
  0
VERTEX
  8
0
 10
2.01286
 20
4.48286
 30
0.0
 40
0
 41
0
  0
VERTEX
  8
0
 10
2.01226
 20
4.48236
 30
0.0
 40
0
 41
0
  0
VERTEX
  8
0
 10
2.01161
 20
4.48193
 30
0.0
 40
0
 41
0
  0
VERTEX
  8
0
 10
2.007
 20
4.47515
 30
0.0
 40
0
 41
0
  0
VERTEX
  8
0
 10
2.00672
 20
4.47424
 30
0.0
 40
0
 41
0
  0
VERTEX
  8
0
 10
2.00493
 20
4.47424
 30
0.0
 40
0
 41
0
  0
VERTEX
  8
0
 10
2.0051
 20
4.47569
 30
0.0
 40
0
 41
0
  0
VERTEX
  8
0
 10
2.01019
 20
4.48699
 30
0.0
 40
0
 41
0
  0
VERTEX
  8
0
 10
2.01107
 20
4.48774
 30
0.0
 40
0
 41
0
  0
VERTEX
  8
0
 10
2.01187
 20
4.48856
 30
0.0
 40
0
 41
0
  0
VERTEX
  8
0
 10
2.02046
 20
4.4924
 30
0.0
 40
0
 41
0
  0
VERTEX
  8
0
 10
2.02333
 20
4.4924
 30
0.0
 40
0
 41
0
  0
VERTEX
  8
0
 10
2.02658
 20
4.4924
 30
0.0
 40
0
 41
0
  0
VERTEX
  8
0
 10
2.03549
 20
4.48822
 30
0.0
 40
0
 41
0
  0
VERTEX
  8
0
 10
2.0364
 20
4.48736
 30
0.0
 40
0
 41
0
  0
VERTEX
  8
0
 10
2.03728
 20
4.48654
 30
0.0
 40
0
 41
0
  0
VERTEX
  8
0
 10
2.04161
 20
4.47831
 30
0.0
 40
0
 41
0
  0
VERTEX
  8
0
 10
2.04161
 20
4.47553
 30
0.0
 40
0
 41
0
  0
VERTEX
  8
0
 10
2.04161
 20
4.4731
 30
0.0
 40
0
 41
0
  0
VERTEX
  8
0
 10
2.03971
 20
4.46653
 30
0.0
 40
0
 41
0
  0
VERTEX
  8
0
 10
2.03933
 20
4.46571
 30
0.0
 40
0
 41
0
  0
VERTEX
  8
0
 10
2.03874
 20
4.46446
 30
0.0
 40
0
 41
0
  0
VERTEX
  8
0
 10
2.02924
 20
4.4509
 30
0.0
 40
0
 41
0
  0
VERTEX
  8
0
 10
2.02794
 20
4.44943
 30
0.0
 40
0
 41
0
  0
VERTEX
  8
0
 10
2.02593
 20
4.44732
 30
0.0
 40
0
 41
0
  0
VERTEX
  8
0
 10
2.01367
 20
4.43435
 30
0.0
 40
0
 41
0
  0
VERTEX
  8
0
 10
2.01318
 20
4.43386
 30
0.0
 40
0
 41
0
  0
VERTEX
  8
0
 10
2.03
 20
4.43386
 30
0.0
 40
0
 41
0
  0
VERTEX
  8
0
 10
2.03179
 20
4.43386
 30
0.0
 40
0
 41
0
  0
VERTEX
  8
0
 10
2.03683
 20
4.43419
 30
0.0
 40
0
 41
0
  0
VERTEX
  8
0
 10
2.03722
 20
4.43425
 30
0.0
 40
0
 41
0
  0
VERTEX
  8
0
 10
2.03754
 20
4.43435
 30
0.0
 40
0
 41
0
  0
VERTEX
  8
0
 10
2.04064
 20
4.43565
 30
0.0
 40
0
 41
0
  0
VERTEX
  8
0
 10
2.0409
 20
4.43582
 30
0.0
 40
0
 41
0
  0
VERTEX
  8
0
 10
2.04118
 20
4.43604
 30
0.0
 40
0
 41
0
  0
VERTEX
  8
0
 10
2.04363
 20
4.43881
 30
0.0
 40
0
 41
0
  0
VERTEX
  8
0
 10
2.04383
 20
4.43913
 30
0.0
 40
0
 41
0
  0
VERTEX
  8
0
 10
2.04557
 20
4.43913
 30
0.0
 40
0
 41
0
  0
SEQEND
 8
0
  0
POLYLINE
  8
0
 62
     0
 66
     1
 10
0
 20
0
 30
0.0
 70
     1
 40
0
 41
0
  0
VERTEX
  8
0
 10
2.05354
 20
4.4521
 30
0.0
 40
0
 41
0
  0
VERTEX
  8
0
 10
2.07807
 20
4.4521
 30
0.0
 40
0
 41
0
  0
VERTEX
  8
0
 10
2.07807
 20
4.44493
 30
0.0
 40
0
 41
0
  0
VERTEX
  8
0
 10
2.05354
 20
4.44493
 30
0.0
 40
0
 41
0
  0
VERTEX
  8
0
 10
2.05354
 20
4.4521
 30
0.0
 40
0
 41
0
  0
SEQEND
 8
0
  0
POLYLINE
  8
0
 62
     0
 66
     1
 10
0
 20
0
 30
0.0
 70
     1
 40
0
 41
0
  0
VERTEX
  8
0
 10
2.09338
 20
4.48475
 30
0.0
 40
0
 41
0
  0
VERTEX
  8
0
 10
2.10906
 20
4.4924
 30
0.0
 40
0
 41
0
  0
VERTEX
  8
0
 10
2.11062
 20
4.4924
 30
0.0
 40
0
 41
0
  0
VERTEX
  8
0
 10
2.11062
 20
4.43804
 30
0.0
 40
0
 41
0
  0
VERTEX
  8
0
 10
2.11062
 20
4.43636
 30
0.0
 40
0
 41
0
  0
VERTEX
  8
0
 10
2.11094
 20
4.43153
 30
0.0
 40
0
 41
0
  0
VERTEX
  8
0
 10
2.11106
 20
4.43132
 30
0.0
 40
0
 41
0
  0
VERTEX
  8
0
 10
2.11111
 20
4.4311
 30
0.0
 40
0
 41
0
  0
VERTEX
  8
0
 10
2.11268
 20
4.42942
 30
0.0
 40
0
 41
0
  0
VERTEX
  8
0
 10
2.11296
 20
4.42925
 30
0.0
 40
0
 41
0
  0
VERTEX
  8
0
 10
2.11317
 20
4.42914
 30
0.0
 40
0
 41
0
  0
VERTEX
  8
0
 10
2.11794
 20
4.4285
 30
0.0
 40
0
 41
0
  0
VERTEX
  8
0
 10
2.11871
 20
4.42844
 30
0.0
 40
0
 41
0
  0
VERTEX
  8
0
 10
2.11871
 20
4.42671
 30
0.0
 40
0
 41
0
  0
VERTEX
  8
0
 10
2.09451
 20
4.42671
 30
0.0
 40
0
 41
0
  0
VERTEX
  8
0
 10
2.09451
 20
4.42844
 30
0.0
 40
0
 41
0
  0
VERTEX
  8
0
 10
2.09526
 20
4.4285
 30
0.0
 40
0
 41
0
  0
VERTEX
  8
0
 10
2.10015
 20
4.42914
 30
0.0
 40
0
 41
0
  0
VERTEX
  8
0
 10
2.10042
 20
4.42925
 30
0.0
 40
0
 41
0
  0
VERTEX
  8
0
 10
2.10064
 20
4.42936
 30
0.0
 40
0
 41
0
  0
VERTEX
  8
0
 10
2.10215
 20
4.43093
 30
0.0
 40
0
 41
0
  0
VERTEX
  8
0
 10
2.10226
 20
4.4311
 30
0.0
 40
0
 41
0
  0
VERTEX
  8
0
 10
2.10232
 20
4.43132
 30
0.0
 40
0
 41
0
  0
VERTEX
  8
0
 10
2.10275
 20
4.43636
 30
0.0
 40
0
 41
0
  0
VERTEX
  8
0
 10
2.10275
 20
4.43804
 30
0.0
 40
0
 41
0
  0
VERTEX
  8
0
 10
2.10275
 20
4.47282
 30
0.0
 40
0
 41
0
  0
VERTEX
  8
0
 10
2.10275
 20
4.4751
 30
0.0
 40
0
 41
0
  0
VERTEX
  8
0
 10
2.10238
 20
4.4815
 30
0.0
 40
0
 41
0
  0
VERTEX
  8
0
 10
2.10232
 20
4.48182
 30
0.0
 40
0
 41
0
  0
VERTEX
  8
0
 10
2.10221
 20
4.4821
 30
0.0
 40
0
 41
0
  0
VERTEX
  8
0
 10
2.10118
 20
4.48394
 30
0.0
 40
0
 41
0
  0
VERTEX
  8
0
 10
2.10107
 20
4.48406
 30
0.0
 40
0
 41
0
  0
VERTEX
  8
0
 10
2.10092
 20
4.48421
 30
0.0
 40
0
 41
0
  0
VERTEX
  8
0
 10
2.09944
 20
4.48475
 30
0.0
 40
0
 41
0
  0
VERTEX
  8
0
 10
2.09896
 20
4.48475
 30
0.0
 40
0
 41
0
  0
VERTEX
  8
0
 10
2.09771
 20
4.48475
 30
0.0
 40
0
 41
0
  0
VERTEX
  8
0
 10
2.09457
 20
4.48356
 30
0.0
 40
0
 41
0
  0
VERTEX
  8
0
 10
2.09407
 20
4.48329
 30
0.0
 40
0
 41
0
  0
VERTEX
  8
0
 10
2.09338
 20
4.48475
 30
0.0
 40
0
 41
0
  0
SEQEND
 8
0
  0
POLYLINE
  8
0
 62
     0
 66
     1
 10
0
 20
0
 30
0.0
 70
     1
 40
0
 41
0
  0
VERTEX
  8
0
 10
2.13835
 20
4.48475
 30
0.0
 40
0
 41
0
  0
VERTEX
  8
0
 10
2.15403
 20
4.4924
 30
0.0
 40
0
 41
0
  0
VERTEX
  8
0
 10
2.1556
 20
4.4924
 30
0.0
 40
0
 41
0
  0
VERTEX
  8
0
 10
2.1556
 20
4.43804
 30
0.0
 40
0
 41
0
  0
VERTEX
  8
0
 10
2.1556
 20
4.43636
 30
0.0
 40
0
 41
0
  0
VERTEX
  8
0
 10
2.15593
 20
4.43153
 30
0.0
 40
0
 41
0
  0
VERTEX
  8
0
 10
2.15603
 20
4.43132
 30
0.0
 40
0
 41
0
  0
VERTEX
  8
0
 10
2.15608
 20
4.4311
 30
0.0
 40
0
 41
0
  0
VERTEX
  8
0
 10
2.15767
 20
4.42942
 30
0.0
 40
0
 41
0
  0
VERTEX
  8
0
 10
2.15793
 20
4.42925
 30
0.0
 40
0
 41
0
  0
VERTEX
  8
0
 10
2.15815
 20
4.42914
 30
0.0
 40
0
 41
0
  0
VERTEX
  8
0
 10
2.16297
 20
4.4285
 30
0.0
 40
0
 41
0
  0
VERTEX
  8
0
 10
2.16374
 20
4.42844
 30
0.0
 40
0
 41
0
  0
VERTEX
  8
0
 10
2.16374
 20
4.42671
 30
0.0
 40
0
 41
0
  0
VERTEX
  8
0
 10
2.13949
 20
4.42671
 30
0.0
 40
0
 41
0
  0
VERTEX
  8
0
 10
2.13949
 20
4.42844
 30
0.0
 40
0
 41
0
  0
VERTEX
  8
0
 10
2.14025
 20
4.4285
 30
0.0
 40
0
 41
0
  0
VERTEX
  8
0
 10
2.14518
 20
4.42914
 30
0.0
 40
0
 41
0
  0
VERTEX
  8
0
 10
2.1454
 20
4.42925
 30
0.0
 40
0
 41
0
  0
VERTEX
  8
0
 10
2.14561
 20
4.42936
 30
0.0
 40
0
 41
0
  0
VERTEX
  8
0
 10
2.14714
 20
4.43093
 30
0.0
 40
0
 41
0
  0
VERTEX
  8
0
 10
2.14725
 20
4.4311
 30
0.0
 40
0
 41
0
  0
VERTEX
  8
0
 10
2.14729
 20
4.43132
 30
0.0
 40
0
 41
0
  0
VERTEX
  8
0
 10
2.14779
 20
4.43636
 30
0.0
 40
0
 41
0
  0
VERTEX
  8
0
 10
2.14779
 20
4.43804
 30
0.0
 40
0
 41
0
  0
VERTEX
  8
0
 10
2.14779
 20
4.47282
 30
0.0
 40
0
 41
0
  0
VERTEX
  8
0
 10
2.14779
 20
4.4751
 30
0.0
 40
0
 41
0
  0
VERTEX
  8
0
 10
2.14735
 20
4.4815
 30
0.0
 40
0
 41
0
  0
VERTEX
  8
0
 10
2.14729
 20
4.48182
 30
0.0
 40
0
 41
0
  0
VERTEX
  8
0
 10
2.14725
 20
4.4821
 30
0.0
 40
0
 41
0
  0
VERTEX
  8
0
 10
2.14621
 20
4.48394
 30
0.0
 40
0
 41
0
  0
VERTEX
  8
0
 10
2.14611
 20
4.48406
 30
0.0
 40
0
 41
0
  0
VERTEX
  8
0
 10
2.14594
 20
4.48421
 30
0.0
 40
0
 41
0
  0
VERTEX
  8
0
 10
2.14447
 20
4.48475
 30
0.0
 40
0
 41
0
  0
VERTEX
  8
0
 10
2.14399
 20
4.48475
 30
0.0
 40
0
 41
0
  0
VERTEX
  8
0
 10
2.14274
 20
4.48475
 30
0.0
 40
0
 41
0
  0
VERTEX
  8
0
 10
2.1396
 20
4.48356
 30
0.0
 40
0
 41
0
  0
VERTEX
  8
0
 10
2.13911
 20
4.48329
 30
0.0
 40
0
 41
0
  0
VERTEX
  8
0
 10
2.13835
 20
4.48475
 30
0.0
 40
0
 41
0
  0
SEQEND
 8
0
  0
POLYLINE
  8
0
 62
     0
 66
     1
 10
0
 20
0
 30
0.0
 70
     1
 40
0
 41
0
  0
VERTEX
  8
0
 10
2.20285
 20
4.49419
 30
0.0
 40
0
 41
0
  0
VERTEX
  8
0
 10
2.17953
 20
4.4254
 30
0.0
 40
0
 41
0
  0
VERTEX
  8
0
 10
2.17572
 20
4.4254
 30
0.0
 40
0
 41
0
  0
VERTEX
  8
0
 10
2.19906
 20
4.49419
 30
0.0
 40
0
 41
0
  0
VERTEX
  8
0
 10
2.20285
 20
4.49419
 30
0.0
 40
0
 41
0
  0
SEQEND
 8
0
  0
POLYLINE
  8
0
 62
     0
 66
     1
 10
0
 20
0
 30
0.0
 70
     1
 40
0
 41
0
  0
VERTEX
  8
0
 10
2.21397
 20
4.48475
 30
0.0
 40
0
 41
0
  0
VERTEX
  8
0
 10
2.22965
 20
4.4924
 30
0.0
 40
0
 41
0
  0
VERTEX
  8
0
 10
2.23122
 20
4.4924
 30
0.0
 40
0
 41
0
  0
VERTEX
  8
0
 10
2.23122
 20
4.43804
 30
0.0
 40
0
 41
0
  0
VERTEX
  8
0
 10
2.23122
 20
4.43636
 30
0.0
 40
0
 41
0
  0
VERTEX
  8
0
 10
2.23156
 20
4.43153
 30
0.0
 40
0
 41
0
  0
VERTEX
  8
0
 10
2.23167
 20
4.43132
 30
0.0
 40
0
 41
0
  0
VERTEX
  8
0
 10
2.23172
 20
4.4311
 30
0.0
 40
0
 41
0
  0
VERTEX
  8
0
 10
2.23329
 20
4.42942
 30
0.0
 40
0
 41
0
  0
VERTEX
  8
0
 10
2.23356
 20
4.42925
 30
0.0
 40
0
 41
0
  0
VERTEX
  8
0
 10
2.23378
 20
4.42914
 30
0.0
 40
0
 41
0
  0
VERTEX
  8
0
 10
2.23861
 20
4.4285
 30
0.0
 40
0
 41
0
  0
VERTEX
  8
0
 10
2.23936
 20
4.42844
 30
0.0
 40
0
 41
0
  0
VERTEX
  8
0
 10
2.23936
 20
4.42671
 30
0.0
 40
0
 41
0
  0
VERTEX
  8
0
 10
2.21511
 20
4.42671
 30
0.0
 40
0
 41
0
  0
VERTEX
  8
0
 10
2.21511
 20
4.42844
 30
0.0
 40
0
 41
0
  0
VERTEX
  8
0
 10
2.21588
 20
4.4285
 30
0.0
 40
0
 41
0
  0
VERTEX
  8
0
 10
2.22076
 20
4.42914
 30
0.0
 40
0
 41
0
  0
VERTEX
  8
0
 10
2.22103
 20
4.42925
 30
0.0
 40
0
 41
0
  0
VERTEX
  8
0
 10
2.22125
 20
4.42936
 30
0.0
 40
0
 41
0
  0
VERTEX
  8
0
 10
2.22276
 20
4.43093
 30
0.0
 40
0
 41
0
  0
VERTEX
  8
0
 10
2.22287
 20
4.4311
 30
0.0
 40
0
 41
0
  0
VERTEX
  8
0
 10
2.22293
 20
4.43132
 30
0.0
 40
0
 41
0
  0
VERTEX
  8
0
 10
2.22336
 20
4.43636
 30
0.0
 40
0
 41
0
  0
VERTEX
  8
0
 10
2.22336
 20
4.43804
 30
0.0
 40
0
 41
0
  0
VERTEX
  8
0
 10
2.22336
 20
4.47282
 30
0.0
 40
0
 41
0
  0
VERTEX
  8
0
 10
2.22336
 20
4.4751
 30
0.0
 40
0
 41
0
  0
VERTEX
  8
0
 10
2.22299
 20
4.4815
 30
0.0
 40
0
 41
0
  0
VERTEX
  8
0
 10
2.22293
 20
4.48182
 30
0.0
 40
0
 41
0
  0
VERTEX
  8
0
 10
2.22287
 20
4.4821
 30
0.0
 40
0
 41
0
  0
VERTEX
  8
0
 10
2.22179
 20
4.48394
 30
0.0
 40
0
 41
0
  0
VERTEX
  8
0
 10
2.22168
 20
4.48406
 30
0.0
 40
0
 41
0
  0
VERTEX
  8
0
 10
2.22151
 20
4.48421
 30
0.0
 40
0
 41
0
  0
VERTEX
  8
0
 10
2.22006
 20
4.48475
 30
0.0
 40
0
 41
0
  0
VERTEX
  8
0
 10
2.21963
 20
4.48475
 30
0.0
 40
0
 41
0
  0
VERTEX
  8
0
 10
2.21838
 20
4.48475
 30
0.0
 40
0
 41
0
  0
VERTEX
  8
0
 10
2.21517
 20
4.48356
 30
0.0
 40
0
 41
0
  0
VERTEX
  8
0
 10
2.21468
 20
4.48329
 30
0.0
 40
0
 41
0
  0
VERTEX
  8
0
 10
2.21397
 20
4.48475
 30
0.0
 40
0
 41
0
  0
SEQEND
 8
0
  0
POLYLINE
  8
0
 62
     0
 66
     1
 10
0
 20
0
 30
0.0
 70
     1
 40
0
 41
0
  0
VERTEX
  8
0
 10
2.29476
 20
4.4924
 30
0.0
 40
0
 41
0
  0
VERTEX
  8
0
 10
2.29476
 20
4.49067
 30
0.0
 40
0
 41
0
  0
VERTEX
  8
0
 10
2.29372
 20
4.49056
 30
0.0
 40
0
 41
0
  0
VERTEX
  8
0
 10
2.28521
 20
4.4885
 30
0.0
 40
0
 41
0
  0
VERTEX
  8
0
 10
2.28456
 20
4.48817
 30
0.0
 40
0
 41
0
  0
VERTEX
  8
0
 10
2.28386
 20
4.4879
 30
0.0
 40
0
 41
0
  0
VERTEX
  8
0
 10
2.27735
 20
4.48307
 30
0.0
 40
0
 41
0
  0
VERTEX
  8
0
 10
2.27675
 20
4.48242
 30
0.0
 40
0
 41
0
  0
VERTEX
  8
0
 10
2.2761
 20
4.48182
 30
0.0
 40
0
 41
0
  0
VERTEX
  8
0
 10
2.27072
 20
4.47472
 30
0.0
 40
0
 41
0
  0
VERTEX
  8
0
 10
2.27029
 20
4.4739
 30
0.0
 40
0
 41
0
  0
VERTEX
  8
0
 10
2.26986
 20
4.47314
 30
0.0
 40
0
 41
0
  0
VERTEX
  8
0
 10
2.26633
 20
4.46376
 30
0.0
 40
0
 41
0
  0
VERTEX
  8
0
 10
2.26606
 20
4.46268
 30
0.0
 40
0
 41
0
  0
VERTEX
  8
0
 10
2.26719
 20
4.46349
 30
0.0
 40
0
 41
0
  0
VERTEX
  8
0
 10
2.27664
 20
4.46733
 30
0.0
 40
0
 41
0
  0
VERTEX
  8
0
 10
2.27979
 20
4.46733
 30
0.0
 40
0
 41
0
  0
VERTEX
  8
0
 10
2.28261
 20
4.46733
 30
0.0
 40
0
 41
0
  0
VERTEX
  8
0
 10
2.29042
 20
4.46294
 30
0.0
 40
0
 41
0
  0
VERTEX
  8
0
 10
2.29124
 20
4.46203
 30
0.0
 40
0
 41
0
  0
VERTEX
  8
0
 10
2.29199
 20
4.46115
 30
0.0
 40
0
 41
0
  0
VERTEX
  8
0
 10
2.29606
 20
4.45156
 30
0.0
 40
0
 41
0
  0
VERTEX
  8
0
 10
2.29606
 20
4.44835
 30
0.0
 40
0
 41
0
  0
VERTEX
  8
0
 10
2.29606
 20
4.44472
 30
0.0
 40
0
 41
0
  0
VERTEX
  8
0
 10
2.29199
 20
4.43479
 30
0.0
 40
0
 41
0
  0
VERTEX
  8
0
 10
2.29118
 20
4.43365
 30
0.0
 40
0
 41
0
  0
VERTEX
  8
0
 10
2.29021
 20
4.43235
 30
0.0
 40
0
 41
0
  0
VERTEX
  8
0
 10
2.27924
 20
4.42557
 30
0.0
 40
0
 41
0
  0
VERTEX
  8
0
 10
2.27561
 20
4.42557
 30
0.0
 40
0
 41
0
  0
VERTEX
  8
0
 10
2.27279
 20
4.42557
 30
0.0
 40
0
 41
0
  0
VERTEX
  8
0
 10
2.26514
 20
4.42925
 30
0.0
 40
0
 41
0
  0
VERTEX
  8
0
 10
2.26438
 20
4.42996
 30
0.0
 40
0
 41
0
  0
VERTEX
  8
0
 10
2.26286
 20
4.43137
 30
0.0
 40
0
 41
0
  0
VERTEX
  8
0
 10
2.25537
 20
4.44683
 30
0.0
 40
0
 41
0
  0
VERTEX
  8
0
 10
2.25537
 20
4.45199
 30
0.0
 40
0
 41
0
  0
VERTEX
  8
0
 10
2.25537
 20
4.45611
 30
0.0
 40
0
 41
0
  0
VERTEX
  8
0
 10
2.25825
 20
4.46712
 30
0.0
 40
0
 41
0
  0
VERTEX
  8
0
 10
2.25885
 20
4.46837
 30
0.0
 40
0
 41
0
  0
VERTEX
  8
0
 10
2.25939
 20
4.46967
 30
0.0
 40
0
 41
0
  0
VERTEX
  8
0
 10
2.26768
 20
4.48122
 30
0.0
 40
0
 41
0
  0
VERTEX
  8
0
 10
2.26878
 20
4.48221
 30
0.0
 40
0
 41
0
  0
VERTEX
  8
0
 10
2.26981
 20
4.48324
 30
0.0
 40
0
 41
0
  0
VERTEX
  8
0
 10
2.28006
 20
4.49001
 30
0.0
 40
0
 41
0
  0
VERTEX
  8
0
 10
2.28108
 20
4.49035
 30
0.0
 40
0
 41
0
  0
VERTEX
  8
0
 10
2.28207
 20
4.49072
 30
0.0
 40
0
 41
0
  0
VERTEX
  8
0
 10
2.28956
 20
4.4924
 30
0.0
 40
0
 41
0
  0
VERTEX
  8
0
 10
2.29204
 20
4.4924
 30
0.0
 40
0
 41
0
  0
VERTEX
  8
0
 10
2.29476
 20
4.4924
 30
0.0
 40
0
 41
0
  0
SEQEND
 8
0
  0
POLYLINE
  8
0
 62
     0
 66
     1
 10
0
 20
0
 30
0.0
 70
     1
 40
0
 41
0
  0
VERTEX
  8
0
 10
2.26525
 20
4.45921
 30
0.0
 40
0
 41
0
  0
VERTEX
  8
0
 10
2.26508
 20
4.45817
 30
0.0
 40
0
 41
0
  0
VERTEX
  8
0
 10
2.26438
 20
4.45117
 30
0.0
 40
0
 41
0
  0
VERTEX
  8
0
 10
2.26438
 20
4.44883
 30
0.0
 40
0
 41
0
  0
VERTEX
  8
0
 10
2.26438
 20
4.4464
 30
0.0
 40
0
 41
0
  0
VERTEX
  8
0
 10
2.26579
 20
4.43983
 30
0.0
 40
0
 41
0
  0
VERTEX
  8
0
 10
2.26606
 20
4.43892
 30
0.0
 40
0
 41
0
  0
VERTEX
  8
0
 10
2.26633
 20
4.43804
 30
0.0
 40
0
 41
0
  0
VERTEX
  8
0
 10
2.27051
 20
4.43099
 30
0.0
 40
0
 41
0
  0
VERTEX
  8
0
 10
2.27111
 20
4.43044
 30
0.0
 40
0
 41
0
  0
VERTEX
  8
0
 10
2.27149
 20
4.43012
 30
0.0
 40
0
 41
0
  0
VERTEX
  8
0
 10
2.27556
 20
4.42822
 30
0.0
 40
0
 41
0
  0
VERTEX
  8
0
 10
2.27696
 20
4.42822
 30
0.0
 40
0
 41
0
  0
VERTEX
  8
0
 10
2.27881
 20
4.42822
 30
0.0
 40
0
 41
0
  0
VERTEX
  8
0
 10
2.28381
 20
4.43147
 30
0.0
 40
0
 41
0
  0
VERTEX
  8
0
 10
2.28435
 20
4.43213
 30
0.0
 40
0
 41
0
  0
VERTEX
  8
0
 10
2.28489
 20
4.43278
 30
0.0
 40
0
 41
0
  0
VERTEX
  8
0
 10
2.2876
 20
4.44065
 30
0.0
 40
0
 41
0
  0
VERTEX
  8
0
 10
2.2876
 20
4.44325
 30
0.0
 40
0
 41
0
  0
VERTEX
  8
0
 10
2.2876
 20
4.44678
 30
0.0
 40
0
 41
0
  0
VERTEX
  8
0
 10
2.28494
 20
4.45632
 30
0.0
 40
0
 41
0
  0
VERTEX
  8
0
 10
2.2844
 20
4.45731
 30
0.0
 40
0
 41
0
  0
VERTEX
  8
0
 10
2.28386
 20
4.45833
 30
0.0
 40
0
 41
0
  0
VERTEX
  8
0
 10
2.27735
 20
4.46322
 30
0.0
 40
0
 41
0
  0
VERTEX
  8
0
 10
2.27522
 20
4.46322
 30
0.0
 40
0
 41
0
  0
VERTEX
  8
0
 10
2.27425
 20
4.46322
 30
0.0
 40
0
 41
0
  0
VERTEX
  8
0
 10
2.27171
 20
4.46262
 30
0.0
 40
0
 41
0
  0
VERTEX
  8
0
 10
2.27138
 20
4.46246
 30
0.0
 40
0
 41
0
  0
VERTEX
  8
0
 10
2.271
 20
4.46235
 30
0.0
 40
0
 41
0
  0
VERTEX
  8
0
 10
2.2659
 20
4.45964
 30
0.0
 40
0
 41
0
  0
VERTEX
  8
0
 10
2.26525
 20
4.45921
 30
0.0
 40
0
 41
0
  0
SEQEND
 8
0
  0
POLYLINE
  8
0
 62
     0
 66
     1
 10
0
 20
0
 30
0.0
 70
     1
 40
0
 41
0
  0
VERTEX
  8
0
 10
1.78489
 20
3.99365
 30
0.0
 40
0
 41
0
  0
VERTEX
  8
0
 10
1.78381
 20
3.99414
 30
0.0
 40
0
 41
0
  0
VERTEX
  8
0
 10
1.77539
 20
3.99994
 30
0.0
 40
0
 41
0
  0
VERTEX
  8
0
 10
1.77485
 20
4.0006
 30
0.0
 40
0
 41
0
  0
VERTEX
  8
0
 10
1.77425
 20
4.00131
 30
0.0
 40
0
 41
0
  0
VERTEX
  8
0
 10
1.77132
 20
4.00863
 30
0.0
 40
0
 41
0
  0
VERTEX
  8
0
 10
1.77132
 20
4.01107
 30
0.0
 40
0
 41
0
  0
VERTEX
  8
0
 10
1.77132
 20
4.01406
 30
0.0
 40
0
 41
0
  0
VERTEX
  8
0
 10
1.77544
 20
4.02229
 30
0.0
 40
0
 41
0
  0
VERTEX
  8
0
 10
1.77632
 20
4.02294
 30
0.0
 40
0
 41
0
  0
VERTEX
  8
0
 10
1.77692
 20
4.02349
 30
0.0
 40
0
 41
0
  0
VERTEX
  8
0
 10
1.78244
 20
4.0261
 30
0.0
 40
0
 41
0
  0
VERTEX
  8
0
 10
1.78435
 20
4.0261
 30
0.0
 40
0
 41
0
  0
VERTEX
  8
0
 10
1.78797
 20
4.0261
 30
0.0
 40
0
 41
0
  0
VERTEX
  8
0
 10
1.79764
 20
4.01872
 30
0.0
 40
0
 41
0
  0
VERTEX
  8
0
 10
1.79889
 20
4.01725
 30
0.0
 40
0
 41
0
  0
VERTEX
  8
0
 10
1.79926
 20
4.01828
 30
0.0
 40
0
 41
0
  0
VERTEX
  8
0
 10
1.80479
 20
4.02572
 30
0.0
 40
0
 41
0
  0
VERTEX
  8
0
 10
1.80556
 20
4.02621
 30
0.0
 40
0
 41
0
  0
VERTEX
  8
0
 10
1.80626
 20
4.02675
 30
0.0
 40
0
 41
0
  0
VERTEX
  8
0
 10
1.81332
 20
4.02924
 30
0.0
 40
0
 41
0
  0
VERTEX
  8
0
 10
1.81569
 20
4.02924
 30
0.0
 40
0
 41
0
  0
VERTEX
  8
0
 10
1.81928
 20
4.02924
 30
0.0
 40
0
 41
0
  0
VERTEX
  8
0
 10
1.82915
 20
4.02485
 30
0.0
 40
0
 41
0
  0
VERTEX
  8
0
 10
1.83018
 20
4.02393
 30
0.0
 40
0
 41
0
  0
VERTEX
  8
0
 10
1.83149
 20
4.02279
 30
0.0
 40
0
 41
0
  0
VERTEX
  8
0
 10
1.83811
 20
4.00863
 30
0.0
 40
0
 41
0
  0
VERTEX
  8
0
 10
1.83811
 20
4.00385
 30
0.0
 40
0
 41
0
  0
VERTEX
  8
0
 10
1.83811
 20
4.00168
 30
0.0
 40
0
 41
0
  0
VERTEX
  8
0
 10
1.83681
 20
3.99544
 30
0.0
 40
0
 41
0
  0
VERTEX
  8
0
 10
1.83653
 20
3.99501
 30
0.0
 40
0
 41
0
  0
VERTEX
  8
0
 10
1.83626
 20
3.99463
 30
0.0
 40
0
 41
0
  0
VERTEX
  8
0
 10
1.83382
 20
3.99268
 30
0.0
 40
0
 41
0
  0
VERTEX
  8
0
 10
1.83306
 20
3.99268
 30
0.0
 40
0
 41
0
  0
VERTEX
  8
0
 10
1.83242
 20
3.99268
 30
0.0
 40
0
 41
0
  0
VERTEX
  8
0
 10
1.83078
 20
3.9936
 30
0.0
 40
0
 41
0
  0
VERTEX
  8
0
 10
1.83062
 20
3.99376
 30
0.0
 40
0
 41
0
  0
VERTEX
  8
0
 10
1.8304
 20
3.99397
 30
0.0
 40
0
 41
0
  0
VERTEX
  8
0
 10
1.82958
 20
3.99588
 30
0.0
 40
0
 41
0
  0
VERTEX
  8
0
 10
1.82958
 20
3.99647
 30
0.0
 40
0
 41
0
  0
VERTEX
  8
0
 10
1.82958
 20
3.99707
 30
0.0
 40
0
 41
0
  0
VERTEX
  8
0
 10
1.82986
 20
3.99869
 30
0.0
 40
0
 41
0
  0
VERTEX
  8
0
 10
1.82997
 20
3.99886
 30
0.0
 40
0
 41
0
  0
VERTEX
  8
0
 10
1.82997
 20
3.99903
 30
0.0
 40
0
 41
0
  0
VERTEX
  8
0
 10
1.83143
 20
4.00211
 30
0.0
 40
0
 41
0
  0
VERTEX
  8
0
 10
1.83171
 20
4.00256
 30
0.0
 40
0
 41
0
  0
VERTEX
  8
0
 10
1.83192
 20
4.00304
 30
0.0
 40
0
 41
0
  0
VERTEX
  8
0
 10
1.83344
 20
4.00629
 30
0.0
 40
0
 41
0
  0
VERTEX
  8
0
 10
1.8335
 20
4.00646
 30
0.0
 40
0
 41
0
  0
VERTEX
  8
0
 10
1.83356
 20
4.00678
 30
0.0
 40
0
 41
0
  0
VERTEX
  8
0
 10
1.83399
 20
4.00939
 30
0.0
 40
0
 41
0
  0
VERTEX
  8
0
 10
1.83399
 20
4.01019
 30
0.0
 40
0
 41
0
  0
VERTEX
  8
0
 10
1.83399
 20
4.01232
 30
0.0
 40
0
 41
0
  0
VERTEX
  8
0
 10
1.83083
 20
4.01807
 30
0.0
 40
0
 41
0
  0
VERTEX
  8
0
 10
1.83024
 20
4.01867
 30
0.0
 40
0
 41
0
  0
VERTEX
  8
0
 10
1.82958
 20
4.01926
 30
0.0
 40
0
 41
0
  0
VERTEX
  8
0
 10
1.8234
 20
4.02225
 30
0.0
 40
0
 41
0
  0
VERTEX
  8
0
 10
1.8214
 20
4.02225
 30
0.0
 40
0
 41
0
  0
VERTEX
  8
0
 10
1.81956
 20
4.02225
 30
0.0
 40
0
 41
0
  0
VERTEX
  8
0
 10
1.81467
 20
4.02083
 30
0.0
 40
0
 41
0
  0
VERTEX
  8
0
 10
1.81407
 20
4.02056
 30
0.0
 40
0
 41
0
  0
VERTEX
  8
0
 10
1.81358
 20
4.0204
 30
0.0
 40
0
 41
0
  0
VERTEX
  8
0
 10
1.81028
 20
4.01812
 30
0.0
 40
0
 41
0
  0
VERTEX
  8
0
 10
1.81006
 20
4.01785
 30
0.0
 40
0
 41
0
  0
VERTEX
  8
0
 10
1.80974
 20
4.01753
 30
0.0
 40
0
 41
0
  0
VERTEX
  8
0
 10
1.80681
 20
4.01286
 30
0.0
 40
0
 41
0
  0
VERTEX
  8
0
 10
1.80658
 20
4.01226
 30
0.0
 40
0
 41
0
  0
VERTEX
  8
0
 10
1.80632
 20
4.01167
 30
0.0
 40
0
 41
0
  0
VERTEX
  8
0
 10
1.80507
 20
4.00667
 30
0.0
 40
0
 41
0
  0
VERTEX
  8
0
 10
1.80507
 20
4.00499
 30
0.0
 40
0
 41
0
  0
VERTEX
  8
0
 10
1.80507
 20
4.00347
 30
0.0
 40
0
 41
0
  0
VERTEX
  8
0
 10
1.8036
 20
4.00347
 30
0.0
 40
0
 41
0
  0
VERTEX
  8
0
 10
1.8035
 20
4.00412
 30
0.0
 40
0
 41
0
  0
VERTEX
  8
0
 10
1.80126
 20
4.01042
 30
0.0
 40
0
 41
0
  0
VERTEX
  8
0
 10
1.80089
 20
4.01101
 30
0.0
 40
0
 41
0
  0
VERTEX
  8
0
 10
1.80051
 20
4.01167
 30
0.0
 40
0
 41
0
  0
VERTEX
  8
0
 10
1.79606
 20
4.01622
 30
0.0
 40
0
 41
0
  0
VERTEX
  8
0
 10
1.79557
 20
4.0165
 30
0.0
 40
0
 41
0
  0
VERTEX
  8
0
 10
1.79503
 20
4.01682
 30
0.0
 40
0
 41
0
  0
VERTEX
  8
0
 10
1.79025
 20
4.01818
 30
0.0
 40
0
 41
0
  0
VERTEX
  8
0
 10
1.78868
 20
4.01818
 30
0.0
 40
0
 41
0
  0
VERTEX
  8
0
 10
1.78668
 20
4.01818
 30
0.0
 40
0
 41
0
  0
VERTEX
  8
0
 10
1.78125
 20
4.01568
 30
0.0
 40
0
 41
0
  0
VERTEX
  8
0
 10
1.78076
 20
4.01514
 30
0.0
 40
0
 41
0
  0
VERTEX
  8
0
 10
1.78022
 20
4.01465
 30
0.0
 40
0
 41
0
  0
VERTEX
  8
0
 10
1.77778
 20
4.00928
 30
0.0
 40
0
 41
0
  0
VERTEX
  8
0
 10
1.77778
 20
4.00749
 30
0.0
 40
0
 41
0
  0
VERTEX
  8
0
 10
1.77778
 20
4.00444
 30
0.0
 40
0
 41
0
  0
VERTEX
  8
0
 10
1.78429
 20
3.9961
 30
0.0
 40
0
 41
0
  0
VERTEX
  8
0
 10
1.78564
 20
3.99522
 30
0.0
 40
0
 41
0
  0
VERTEX
  8
0
 10
1.78489
 20
3.99365
 30
0.0
 40
0
 41
0
  0
SEQEND
 8
0
  0
POLYLINE
  8
0
 62
     0
 66
     1
 10
0
 20
0
 30
0.0
 70
     1
 40
0
 41
0
  0
VERTEX
  8
0
 10
1.81164
 20
4.04129
 30
0.0
 40
0
 41
0
  0
VERTEX
  8
0
 10
1.81164
 20
4.06581
 30
0.0
 40
0
 41
0
  0
VERTEX
  8
0
 10
1.81879
 20
4.06581
 30
0.0
 40
0
 41
0
  0
VERTEX
  8
0
 10
1.81879
 20
4.04129
 30
0.0
 40
0
 41
0
  0
VERTEX
  8
0
 10
1.81164
 20
4.04129
 30
0.0
 40
0
 41
0
  0
SEQEND
 8
0
  0
POLYLINE
  8
0
 62
     0
 66
     1
 10
0
 20
0
 30
0.0
 70
     1
 40
0
 41
0
  0
VERTEX
  8
0
 10
1.77897
 20
4.08111
 30
0.0
 40
0
 41
0
  0
VERTEX
  8
0
 10
1.77132
 20
4.09674
 30
0.0
 40
0
 41
0
  0
VERTEX
  8
0
 10
1.77132
 20
4.09831
 30
0.0
 40
0
 41
0
  0
VERTEX
  8
0
 10
1.82568
 20
4.09831
 30
0.0
 40
0
 41
0
  0
VERTEX
  8
0
 10
1.82736
 20
4.09831
 30
0.0
 40
0
 41
0
  0
VERTEX
  8
0
 10
1.83214
 20
4.09874
 30
0.0
 40
0
 41
0
  0
VERTEX
  8
0
 10
1.83242
 20
4.09879
 30
0.0
 40
0
 41
0
  0
VERTEX
  8
0
 10
1.83263
 20
4.0989
 30
0.0
 40
0
 41
0
  0
VERTEX
  8
0
 10
1.83425
 20
4.10042
 30
0.0
 40
0
 41
0
  0
VERTEX
  8
0
 10
1.83442
 20
4.10064
 30
0.0
 40
0
 41
0
  0
VERTEX
  8
0
 10
1.83453
 20
4.10092
 30
0.0
 40
0
 41
0
  0
VERTEX
  8
0
 10
1.83518
 20
4.10574
 30
0.0
 40
0
 41
0
  0
VERTEX
  8
0
 10
1.83524
 20
4.10644
 30
0.0
 40
0
 41
0
  0
VERTEX
  8
0
 10
1.83703
 20
4.10644
 30
0.0
 40
0
 41
0
  0
VERTEX
  8
0
 10
1.83703
 20
4.08225
 30
0.0
 40
0
 41
0
  0
VERTEX
  8
0
 10
1.83524
 20
4.08225
 30
0.0
 40
0
 41
0
  0
VERTEX
  8
0
 10
1.83518
 20
4.08301
 30
0.0
 40
0
 41
0
  0
VERTEX
  8
0
 10
1.83458
 20
4.08789
 30
0.0
 40
0
 41
0
  0
VERTEX
  8
0
 10
1.83447
 20
4.08811
 30
0.0
 40
0
 41
0
  0
VERTEX
  8
0
 10
1.83431
 20
4.08832
 30
0.0
 40
0
 41
0
  0
VERTEX
  8
0
 10
1.83279
 20
4.0899
 30
0.0
 40
0
 41
0
  0
VERTEX
  8
0
 10
1.83263
 20
4.08996
 30
0.0
 40
0
 41
0
  0
VERTEX
  8
0
 10
1.83242
 20
4.09006
 30
0.0
 40
0
 41
0
  0
VERTEX
  8
0
 10
1.82736
 20
4.0905
 30
0.0
 40
0
 41
0
  0
VERTEX
  8
0
 10
1.82568
 20
4.0905
 30
0.0
 40
0
 41
0
  0
VERTEX
  8
0
 10
1.7909
 20
4.0905
 30
0.0
 40
0
 41
0
  0
VERTEX
  8
0
 10
1.78863
 20
4.0905
 30
0.0
 40
0
 41
0
  0
VERTEX
  8
0
 10
1.78222
 20
4.09011
 30
0.0
 40
0
 41
0
  0
VERTEX
  8
0
 10
1.7819
 20
4.09
 30
0.0
 40
0
 41
0
  0
VERTEX
  8
0
 10
1.78162
 20
4.08996
 30
0.0
 40
0
 41
0
  0
VERTEX
  8
0
 10
1.77979
 20
4.08897
 30
0.0
 40
0
 41
0
  0
VERTEX
  8
0
 10
1.77968
 20
4.08882
 30
0.0
 40
0
 41
0
  0
VERTEX
  8
0
 10
1.77951
 20
4.08871
 30
0.0
 40
0
 41
0
  0
VERTEX
  8
0
 10
1.77897
 20
4.08724
 30
0.0
 40
0
 41
0
  0
VERTEX
  8
0
 10
1.77897
 20
4.08669
 30
0.0
 40
0
 41
0
  0
VERTEX
  8
0
 10
1.77897
 20
4.0855
 30
0.0
 40
0
 41
0
  0
VERTEX
  8
0
 10
1.78017
 20
4.08236
 30
0.0
 40
0
 41
0
  0
VERTEX
  8
0
 10
1.78043
 20
4.08182
 30
0.0
 40
0
 41
0
  0
VERTEX
  8
0
 10
1.77897
 20
4.08111
 30
0.0
 40
0
 41
0
  0
SEQEND
 8
0
  0
POLYLINE
  8
0
 62
     0
 66
     1
 10
0
 20
0
 30
0.0
 70
     1
 40
0
 41
0
  0
VERTEX
  8
0
 10
1.76947
 20
4.14556
 30
0.0
 40
0
 41
0
  0
VERTEX
  8
0
 10
1.83832
 20
4.12224
 30
0.0
 40
0
 41
0
  0
VERTEX
  8
0
 10
1.83832
 20
4.11843
 30
0.0
 40
0
 41
0
  0
VERTEX
  8
0
 10
1.76947
 20
4.14176
 30
0.0
 40
0
 41
0
  0
VERTEX
  8
0
 10
1.76947
 20
4.14556
 30
0.0
 40
0
 41
0
  0
SEQEND
 8
0
  0
POLYLINE
  8
0
 62
     0
 66
     1
 10
0
 20
0
 30
0.0
 70
     1
 40
0
 41
0
  0
VERTEX
  8
0
 10
1.8246
 20
4.18989
 30
0.0
 40
0
 41
0
  0
VERTEX
  8
0
 10
1.83703
 20
4.18539
 30
0.0
 40
0
 41
0
  0
VERTEX
  8
0
 10
1.83703
 20
4.1474
 30
0.0
 40
0
 41
0
  0
VERTEX
  8
0
 10
1.83524
 20
4.1474
 30
0.0
 40
0
 41
0
  0
VERTEX
  8
0
 10
1.83268
 20
4.15022
 30
0.0
 40
0
 41
0
  0
VERTEX
  8
0
 10
1.81185
 20
4.16986
 30
0.0
 40
0
 41
0
  0
VERTEX
  8
0
 10
1.81028
 20
4.17101
 30
0.0
 40
0
 41
0
  0
VERTEX
  8
0
 10
1.80865
 20
4.17215
 30
0.0
 40
0
 41
0
  0
VERTEX
  8
0
 10
1.7966
 20
4.17785
 30
0.0
 40
0
 41
0
  0
VERTEX
  8
0
 10
1.79258
 20
4.17785
 30
0.0
 40
0
 41
0
  0
VERTEX
  8
0
 10
1.79004
 20
4.17785
 30
0.0
 40
0
 41
0
  0
VERTEX
  8
0
 10
1.78315
 20
4.17475
 30
0.0
 40
0
 41
0
  0
VERTEX
  8
0
 10
1.7825
 20
4.1741
 30
0.0
 40
0
 41
0
  0
VERTEX
  8
0
 10
1.78185
 20
4.1735
 30
0.0
 40
0
 41
0
  0
VERTEX
  8
0
 10
1.7786
 20
4.16726
 30
0.0
 40
0
 41
0
  0
VERTEX
  8
0
 10
1.7786
 20
4.16515
 30
0.0
 40
0
 41
0
  0
VERTEX
  8
0
 10
1.7786
 20
4.16303
 30
0.0
 40
0
 41
0
  0
VERTEX
  8
0
 10
1.78088
 20
4.15722
 30
0.0
 40
0
 41
0
  0
VERTEX
  8
0
 10
1.78136
 20
4.15657
 30
0.0
 40
0
 41
0
  0
VERTEX
  8
0
 10
1.78179
 20
4.15597
 30
0.0
 40
0
 41
0
  0
VERTEX
  8
0
 10
1.78857
 20
4.15136
 30
0.0
 40
0
 41
0
  0
VERTEX
  8
0
 10
1.7895
 20
4.15104
 30
0.0
 40
0
 41
0
  0
VERTEX
  8
0
 10
1.7895
 20
4.14925
 30
0.0
 40
0
 41
0
  0
VERTEX
  8
0
 10
1.78803
 20
4.14947
 30
0.0
 40
0
 41
0
  0
VERTEX
  8
0
 10
1.77675
 20
4.15457
 30
0.0
 40
0
 41
0
  0
VERTEX
  8
0
 10
1.77599
 20
4.15539
 30
0.0
 40
0
 41
0
  0
VERTEX
  8
0
 10
1.77518
 20
4.15619
 30
0.0
 40
0
 41
0
  0
VERTEX
  8
0
 10
1.77132
 20
4.16482
 30
0.0
 40
0
 41
0
  0
VERTEX
  8
0
 10
1.77132
 20
4.16764
 30
0.0
 40
0
 41
0
  0
VERTEX
  8
0
 10
1.77132
 20
4.17096
 30
0.0
 40
0
 41
0
  0
VERTEX
  8
0
 10
1.7755
 20
4.17985
 30
0.0
 40
0
 41
0
  0
VERTEX
  8
0
 10
1.77636
 20
4.18072
 30
0.0
 40
0
 41
0
  0
VERTEX
  8
0
 10
1.77718
 20
4.18158
 30
0.0
 40
0
 41
0
  0
VERTEX
  8
0
 10
1.78543
 20
4.18599
 30
0.0
 40
0
 41
0
  0
VERTEX
  8
0
 10
1.78819
 20
4.18599
 30
0.0
 40
0
 41
0
  0
VERTEX
  8
0
 10
1.79064
 20
4.18599
 30
0.0
 40
0
 41
0
  0
VERTEX
  8
0
 10
1.79715
 20
4.18408
 30
0.0
 40
0
 41
0
  0
VERTEX
  8
0
 10
1.79801
 20
4.18371
 30
0.0
 40
0
 41
0
  0
VERTEX
  8
0
 10
1.79926
 20
4.18311
 30
0.0
 40
0
 41
0
  0
VERTEX
  8
0
 10
1.81282
 20
4.17361
 30
0.0
 40
0
 41
0
  0
VERTEX
  8
0
 10
1.81429
 20
4.17225
 30
0.0
 40
0
 41
0
  0
VERTEX
  8
0
 10
1.8164
 20
4.17031
 30
0.0
 40
0
 41
0
  0
VERTEX
  8
0
 10
1.82937
 20
4.15804
 30
0.0
 40
0
 41
0
  0
VERTEX
  8
0
 10
1.82986
 20
4.1575
 30
0.0
 40
0
 41
0
  0
VERTEX
  8
0
 10
1.82986
 20
4.17432
 30
0.0
 40
0
 41
0
  0
VERTEX
  8
0
 10
1.82986
 20
4.17617
 30
0.0
 40
0
 41
0
  0
VERTEX
  8
0
 10
1.82954
 20
4.18121
 30
0.0
 40
0
 41
0
  0
VERTEX
  8
0
 10
1.82949
 20
4.18153
 30
0.0
 40
0
 41
0
  0
VERTEX
  8
0
 10
1.82937
 20
4.18192
 30
0.0
 40
0
 41
0
  0
VERTEX
  8
0
 10
1.82807
 20
4.18494
 30
0.0
 40
0
 41
0
  0
VERTEX
  8
0
 10
1.8279
 20
4.18522
 30
0.0
 40
0
 41
0
  0
VERTEX
  8
0
 10
1.82769
 20
4.18554
 30
0.0
 40
0
 41
0
  0
VERTEX
  8
0
 10
1.82493
 20
4.18799
 30
0.0
 40
0
 41
0
  0
VERTEX
  8
0
 10
1.8246
 20
4.18815
 30
0.0
 40
0
 41
0
  0
VERTEX
  8
0
 10
1.8246
 20
4.18989
 30
0.0
 40
0
 41
0
  0
SEQEND
 8
0
  0
POLYLINE
  8
0
 62
     8
 66
     1
 10
0
 20
0
 30
0.0
 70
     1
 40
0
 41
0
  0
VERTEX
  8
0
 10
1.89367
 20
2.88271
 30
0.0
 40
0
 41
0
  0
VERTEX
  8
0
 10
2.39367
 20
2.63271
 30
0.0
 40
0
 41
0
  0
VERTEX
  8
0
 10
2.79378
 20
2.63271
 30
0.0
 40
0
 41
0
  0
VERTEX
  8
0
 10
2.29378
 20
2.88271
 30
0.0
 40
0
 41
0
  0
VERTEX
  8
0
 10
1.89367
 20
2.88271
 30
0.0
 40
0
 41
0
  0
SEQEND
 8
0
  0
POLYLINE
  8
0
 62
     0
 66
     1
 10
0
 20
0
 30
0.0
 70
     1
 40
1.00006
 41
1.00006
  0
VERTEX
  8
0
 10
1.89367
 20
2.88271
 30
0.0
 40
0.0138897
 41
0.0138897
  0
VERTEX
  8
0
 10
2.39367
 20
2.63271
 30
0.0
 40
0.0138897
 41
0.0138897
  0
VERTEX
  8
0
 10
2.79378
 20
2.63271
 30
0.0
 40
0.0138897
 41
0.0138897
  0
VERTEX
  8
0
 10
2.29378
 20
2.88271
 30
0.0
 40
0.0138897
 41
0.0138897
  0
VERTEX
  8
0
 10
1.89367
 20
2.88271
 30
0.0
 40
0.0138897
 41
0.0138897
  0
SEQEND
 8
0
  0
POLYLINE
  8
0
 62
     254
 66
     1
 10
0
 20
0
 30
0.0
 70
     1
 40
0
 41
0
  0
VERTEX
  8
0
 10
2.29378
 20
2.88271
 30
0.0
 40
0
 41
0
  0
VERTEX
  8
0
 10
2.79378
 20
2.63271
 30
0.0
 40
0
 41
0
  0
VERTEX
  8
0
 10
2.79378
 20
2.96951
 30
0.0
 40
0
 41
0
  0
VERTEX
  8
0
 10
2.29378
 20
3.21951
 30
0.0
 40
0
 41
0
  0
VERTEX
  8
0
 10
2.29378
 20
2.88271
 30
0.0
 40
0
 41
0
  0
SEQEND
 8
0
  0
POLYLINE
  8
0
 62
     0
 66
     1
 10
0
 20
0
 30
0.0
 70
     1
 40
1.00006
 41
1.00006
  0
VERTEX
  8
0
 10
2.29378
 20
2.88271
 30
0.0
 40
0.0138897
 41
0.0138897
  0
VERTEX
  8
0
 10
2.79378
 20
2.63271
 30
0.0
 40
0.0138897
 41
0.0138897
  0
VERTEX
  8
0
 10
2.79378
 20
2.96951
 30
0.0
 40
0.0138897
 41
0.0138897
  0
VERTEX
  8
0
 10
2.29378
 20
3.21951
 30
0.0
 40
0.0138897
 41
0.0138897
  0
VERTEX
  8
0
 10
2.29378
 20
2.88271
 30
0.0
 40
0.0138897
 41
0.0138897
  0
SEQEND
 8
0
  0
POLYLINE
  8
0
 62
     8
 66
     1
 10
0
 20
0
 30
0.0
 70
     1
 40
0
 41
0
  0
VERTEX
  8
0
 10
2.29378
 20
3.21951
 30
0.0
 40
0
 41
0
  0
VERTEX
  8
0
 10
2.79378
 20
2.96951
 30
0.0
 40
0
 41
0
  0
VERTEX
  8
0
 10
2.92725
 20
2.96951
 30
0.0
 40
0
 41
0
  0
VERTEX
  8
0
 10
2.42725
 20
3.21951
 30
0.0
 40
0
 41
0
  0
VERTEX
  8
0
 10
2.29378
 20
3.21951
 30
0.0
 40
0
 41
0
  0
SEQEND
 8
0
  0
POLYLINE
  8
0
 62
     0
 66
     1
 10
0
 20
0
 30
0.0
 70
     1
 40
1.00006
 41
1.00006
  0
VERTEX
  8
0
 10
2.29378
 20
3.21951
 30
0.0
 40
0.0138897
 41
0.0138897
  0
VERTEX
  8
0
 10
2.79378
 20
2.96951
 30
0.0
 40
0.0138897
 41
0.0138897
  0
VERTEX
  8
0
 10
2.92725
 20
2.96951
 30
0.0
 40
0.0138897
 41
0.0138897
  0
VERTEX
  8
0
 10
2.42725
 20
3.21951
 30
0.0
 40
0.0138897
 41
0.0138897
  0
VERTEX
  8
0
 10
2.29378
 20
3.21951
 30
0.0
 40
0.0138897
 41
0.0138897
  0
SEQEND
 8
0
  0
POLYLINE
  8
0
 62
     254
 66
     1
 10
0
 20
0
 30
0.0
 70
     1
 40
0
 41
0
  0
VERTEX
  8
0
 10
2.42725
 20
3.21951
 30
0.0
 40
0
 41
0
  0
VERTEX
  8
0
 10
2.92725
 20
2.96951
 30
0.0
 40
0
 41
0
  0
VERTEX
  8
0
 10
2.92725
 20
3.12804
 30
0.0
 40
0
 41
0
  0
VERTEX
  8
0
 10
2.42725
 20
3.37804
 30
0.0
 40
0
 41
0
  0
VERTEX
  8
0
 10
2.42725
 20
3.21951
 30
0.0
 40
0
 41
0
  0
SEQEND
 8
0
  0
POLYLINE
  8
0
 62
     0
 66
     1
 10
0
 20
0
 30
0.0
 70
     1
 40
1.00006
 41
1.00006
  0
VERTEX
  8
0
 10
2.42725
 20
3.21951
 30
0.0
 40
0.0138897
 41
0.0138897
  0
VERTEX
  8
0
 10
2.92725
 20
2.96951
 30
0.0
 40
0.0138897
 41
0.0138897
  0
VERTEX
  8
0
 10
2.92725
 20
3.12804
 30
0.0
 40
0.0138897
 41
0.0138897
  0
VERTEX
  8
0
 10
2.42725
 20
3.37804
 30
0.0
 40
0.0138897
 41
0.0138897
  0
VERTEX
  8
0
 10
2.42725
 20
3.21951
 30
0.0
 40
0.0138897
 41
0.0138897
  0
SEQEND
 8
0
  0
POLYLINE
  8
0
 62
     251
 66
     1
 10
0
 20
0
 30
0.0
 70
     1
 40
0
 41
0
  0
VERTEX
  8
0
 10
2.42725
 20
3.37804
 30
0.0
 40
0
 41
0
  0
VERTEX
  8
0
 10
2.92725
 20
3.12804
 30
0.0
 40
0
 41
0
  0
VERTEX
  8
0
 10
2.96029
 20
3.13049
 30
0.0
 40
0
 41
0
  0
VERTEX
  8
0
 10
2.46029
 20
3.38049
 30
0.0
 40
0
 41
0
  0
VERTEX
  8
0
 10
2.42725
 20
3.37804
 30
0.0
 40
0
 41
0
  0
SEQEND
 8
0
  0
POLYLINE
  8
0
 62
     251
 66
     1
 10
0
 20
0
 30
0.0
 70
     1
 40
0
 41
0
  0
VERTEX
  8
0
 10
2.46029
 20
3.38049
 30
0.0
 40
0
 41
0
  0
VERTEX
  8
0
 10
2.96029
 20
3.13049
 30
0.0
 40
0
 41
0
  0
VERTEX
  8
0
 10
2.99208
 20
3.1339
 30
0.0
 40
0
 41
0
  0
VERTEX
  8
0
 10
2.49208
 20
3.3839
 30
0.0
 40
0
 41
0
  0
VERTEX
  8
0
 10
2.46029
 20
3.38049
 30
0.0
 40
0
 41
0
  0
SEQEND
 8
0
  0
POLYLINE
  8
0
 62
     252
 66
     1
 10
0
 20
0
 30
0.0
 70
     1
 40
0
 41
0
  0
VERTEX
  8
0
 10
2.49208
 20
3.3839
 30
0.0
 40
0
 41
0
  0
VERTEX
  8
0
 10
2.99208
 20
3.1339
 30
0.0
 40
0
 41
0
  0
VERTEX
  8
0
 10
3.02257
 20
3.1384
 30
0.0
 40
0
 41
0
  0
VERTEX
  8
0
 10
2.52257
 20
3.3884
 30
0.0
 40
0
 41
0
  0
VERTEX
  8
0
 10
2.49208
 20
3.3839
 30
0.0
 40
0
 41
0
  0
SEQEND
 8
0
  0
POLYLINE
  8
0
 62
     252
 66
     1
 10
0
 20
0
 30
0.0
 70
     1
 40
0
 41
0
  0
VERTEX
  8
0
 10
2.52257
 20
3.3884
 30
0.0
 40
0
 41
0
  0
VERTEX
  8
0
 10
3.02257
 20
3.1384
 30
0.0
 40
0
 41
0
  0
VERTEX
  8
0
 10
3.05181
 20
3.14387
 30
0.0
 40
0
 41
0
  0
VERTEX
  8
0
 10
2.55181
 20
3.39387
 30
0.0
 40
0
 41
0
  0
VERTEX
  8
0
 10
2.52257
 20
3.3884
 30
0.0
 40
0
 41
0
  0
SEQEND
 8
0
  0
POLYLINE
  8
0
 62
     252
 66
     1
 10
0
 20
0
 30
0.0
 70
     1
 40
0
 41
0
  0
VERTEX
  8
0
 10
2.55181
 20
3.39387
 30
0.0
 40
0
 41
0
  0
VERTEX
  8
0
 10
3.05181
 20
3.14387
 30
0.0
 40
0
 41
0
  0
VERTEX
  8
0
 10
3.07975
 20
3.15033
 30
0.0
 40
0
 41
0
  0
VERTEX
  8
0
 10
2.57975
 20
3.40033
 30
0.0
 40
0
 41
0
  0
VERTEX
  8
0
 10
2.55181
 20
3.39387
 30
0.0
 40
0
 41
0
  0
SEQEND
 8
0
  0
POLYLINE
  8
0
 62
     9
 66
     1
 10
0
 20
0
 30
0.0
 70
     1
 40
0
 41
0
  0
VERTEX
  8
0
 10
2.57975
 20
3.40033
 30
0.0
 40
0
 41
0
  0
VERTEX
  8
0
 10
3.07975
 20
3.15033
 30
0.0
 40
0
 41
0
  0
VERTEX
  8
0
 10
3.10644
 20
3.15782
 30
0.0
 40
0
 41
0
  0
VERTEX
  8
0
 10
2.60644
 20
3.40782
 30
0.0
 40
0
 41
0
  0
VERTEX
  8
0
 10
2.57975
 20
3.40033
 30
0.0
 40
0
 41
0
  0
SEQEND
 8
0
  0
POLYLINE
  8
0
 62
     9
 66
     1
 10
0
 20
0
 30
0.0
 70
     1
 40
0
 41
0
  0
VERTEX
  8
0
 10
2.60644
 20
3.40782
 30
0.0
 40
0
 41
0
  0
VERTEX
  8
0
 10
3.10644
 20
3.15782
 30
0.0
 40
0
 41
0
  0
VERTEX
  8
0
 10
3.13183
 20
3.16635
 30
0.0
 40
0
 41
0
  0
VERTEX
  8
0
 10
2.63183
 20
3.41635
 30
0.0
 40
0
 41
0
  0
VERTEX
  8
0
 10
2.60644
 20
3.40782
 30
0.0
 40
0
 41
0
  0
SEQEND
 8
0
  0
POLYLINE
  8
0
 62
     253
 66
     1
 10
0
 20
0
 30
0.0
 70
     1
 40
0
 41
0
  0
VERTEX
  8
0
 10
2.63183
 20
3.41635
 30
0.0
 40
0
 41
0
  0
VERTEX
  8
0
 10
3.13183
 20
3.16635
 30
0.0
 40
0
 41
0
  0
VERTEX
  8
0
 10
3.15597
 20
3.17583
 30
0.0
 40
0
 41
0
  0
VERTEX
  8
0
 10
2.65597
 20
3.42583
 30
0.0
 40
0
 41
0
  0
VERTEX
  8
0
 10
2.63183
 20
3.41635
 30
0.0
 40
0
 41
0
  0
SEQEND
 8
0
  0
POLYLINE
  8
0
 62
     253
 66
     1
 10
0
 20
0
 30
0.0
 70
     1
 40
0
 41
0
  0
VERTEX
  8
0
 10
2.65597
 20
3.42583
 30
0.0
 40
0
 41
0
  0
VERTEX
  8
0
 10
3.15597
 20
3.17583
 30
0.0
 40
0
 41
0
  0
VERTEX
  8
0
 10
3.17893
 20
3.18631
 30
0.0
 40
0
 41
0
  0
VERTEX
  8
0
 10
2.67893
 20
3.43631
 30
0.0
 40
0
 41
0
  0
VERTEX
  8
0
 10
2.65597
 20
3.42583
 30
0.0
 40
0
 41
0
  0
SEQEND
 8
0
  0
POLYLINE
  8
0
 62
     253
 66
     1
 10
0
 20
0
 30
0.0
 70
     1
 40
0
 41
0
  0
VERTEX
  8
0
 10
2.67893
 20
3.43631
 30
0.0
 40
0
 41
0
  0
VERTEX
  8
0
 10
3.17893
 20
3.18631
 30
0.0
 40
0
 41
0
  0
VERTEX
  8
0
 10
3.20057
 20
3.19775
 30
0.0
 40
0
 41
0
  0
VERTEX
  8
0
 10
2.70057
 20
3.44775
 30
0.0
 40
0
 41
0
  0
VERTEX
  8
0
 10
2.67893
 20
3.43631
 30
0.0
 40
0
 41
0
  0
SEQEND
 8
0
  0
POLYLINE
  8
0
 62
     253
 66
     1
 10
0
 20
0
 30
0.0
 70
     1
 40
0
 41
0
  0
VERTEX
  8
0
 10
2.70057
 20
3.44775
 30
0.0
 40
0
 41
0
  0
VERTEX
  8
0
 10
3.20057
 20
3.19775
 30
0.0
 40
0
 41
0
  0
VERTEX
  8
0
 10
3.22103
 20
3.21018
 30
0.0
 40
0
 41
0
  0
VERTEX
  8
0
 10
2.72103
 20
3.46018
 30
0.0
 40
0
 41
0
  0
VERTEX
  8
0
 10
2.70057
 20
3.44775
 30
0.0
 40
0
 41
0
  0
SEQEND
 8
0
  0
POLYLINE
  8
0
 62
     33
 66
     1
 10
0
 20
0
 30
0.0
 70
     1
 40
0
 41
0
  0
VERTEX
  8
0
 10
2.72103
 20
3.46018
 30
0.0
 40
0
 41
0
  0
VERTEX
  8
0
 10
3.22103
 20
3.21018
 30
0.0
 40
0
 41
0
  0
VERTEX
  8
0
 10
3.24024
 20
3.22358
 30
0.0
 40
0
 41
0
  0
VERTEX
  8
0
 10
2.74024
 20
3.47358
 30
0.0
 40
0
 41
0
  0
VERTEX
  8
0
 10
2.72103
 20
3.46018
 30
0.0
 40
0
 41
0
  0
SEQEND
 8
0
  0
POLYLINE
  8
0
 62
     254
 66
     1
 10
0
 20
0
 30
0.0
 70
     1
 40
0
 41
0
  0
VERTEX
  8
0
 10
2.74024
 20
3.47358
 30
0.0
 40
0
 41
0
  0
VERTEX
  8
0
 10
3.24024
 20
3.22358
 30
0.0
 40
0
 41
0
  0
VERTEX
  8
0
 10
3.25825
 20
3.23796
 30
0.0
 40
0
 41
0
  0
VERTEX
  8
0
 10
2.75825
 20
3.48796
 30
0.0
 40
0
 41
0
  0
VERTEX
  8
0
 10
2.74024
 20
3.47358
 30
0.0
 40
0
 41
0
  0
SEQEND
 8
0
  0
POLYLINE
  8
0
 62
     254
 66
     1
 10
0
 20
0
 30
0.0
 70
     1
 40
0
 41
0
  0
VERTEX
  8
0
 10
2.75825
 20
3.48796
 30
0.0
 40
0
 41
0
  0
VERTEX
  8
0
 10
3.25825
 20
3.23796
 30
0.0
 40
0
 41
0
  0
VERTEX
  8
0
 10
3.27501
 20
3.25331
 30
0.0
 40
0
 41
0
  0
VERTEX
  8
0
 10
2.77501
 20
3.50331
 30
0.0
 40
0
 41
0
  0
VERTEX
  8
0
 10
2.75825
 20
3.48796
 30
0.0
 40
0
 41
0
  0
SEQEND
 8
0
  0
POLYLINE
  8
0
 62
     254
 66
     1
 10
0
 20
0
 30
0.0
 70
     1
 40
0
 41
0
  0
VERTEX
  8
0
 10
2.77501
 20
3.50331
 30
0.0
 40
0
 41
0
  0
VERTEX
  8
0
 10
3.27501
 20
3.25331
 30
0.0
 40
0
 41
0
  0
VERTEX
  8
0
 10
3.29064
 20
3.26958
 30
0.0
 40
0
 41
0
  0
VERTEX
  8
0
 10
2.79064
 20
3.51958
 30
0.0
 40
0
 41
0
  0
VERTEX
  8
0
 10
2.77501
 20
3.50331
 30
0.0
 40
0
 41
0
  0
SEQEND
 8
0
  0
POLYLINE
  8
0
 62
     254
 66
     1
 10
0
 20
0
 30
0.0
 70
     1
 40
0
 41
0
  0
VERTEX
  8
0
 10
2.79064
 20
3.51958
 30
0.0
 40
0
 41
0
  0
VERTEX
  8
0
 10
3.29064
 20
3.26958
 30
0.0
 40
0
 41
0
  0
VERTEX
  8
0
 10
3.30501
 20
3.28678
 30
0.0
 40
0
 41
0
  0
VERTEX
  8
0
 10
2.80501
 20
3.53678
 30
0.0
 40
0
 41
0
  0
VERTEX
  8
0
 10
2.79064
 20
3.51958
 30
0.0
 40
0
 41
0
  0
SEQEND
 8
0
  0
POLYLINE
  8
0
 62
     254
 66
     1
 10
0
 20
0
 30
0.0
 70
     1
 40
0
 41
0
  0
VERTEX
  8
0
 10
2.80501
 20
3.53678
 30
0.0
 40
0
 41
0
  0
VERTEX
  8
0
 10
3.30501
 20
3.28678
 30
0.0
 40
0
 41
0
  0
VERTEX
  8
0
 10
3.31819
 20
3.30496
 30
0.0
 40
0
 41
0
  0
VERTEX
  8
0
 10
2.81819
 20
3.55496
 30
0.0
 40
0
 41
0
  0
VERTEX
  8
0
 10
2.80501
 20
3.53678
 30
0.0
 40
0
 41
0
  0
SEQEND
 8
0
  0
POLYLINE
  8
0
 62
     254
 66
     1
 10
0
 20
0
 30
0.0
 70
     1
 40
0
 41
0
  0
VERTEX
  8
0
 10
2.81819
 20
3.55496
 30
0.0
 40
0
 41
0
  0
VERTEX
  8
0
 10
3.31819
 20
3.30496
 30
0.0
 40
0
 41
0
  0
VERTEX
  8
0
 10
3.33018
 20
3.32406
 30
0.0
 40
0
 41
0
  0
VERTEX
  8
0
 10
2.83018
 20
3.57406
 30
0.0
 40
0
 41
0
  0
VERTEX
  8
0
 10
2.81819
 20
3.55496
 30
0.0
 40
0
 41
0
  0
SEQEND
 8
0
  0
POLYLINE
  8
0
 62
     254
 66
     1
 10
0
 20
0
 30
0.0
 70
     1
 40
0
 41
0
  0
VERTEX
  8
0
 10
2.83018
 20
3.57406
 30
0.0
 40
0
 41
0
  0
VERTEX
  8
0
 10
3.33018
 20
3.32406
 30
0.0
 40
0
 41
0
  0
VERTEX
  8
0
 10
3.34104
 20
3.34407
 30
0.0
 40
0
 41
0
  0
VERTEX
  8
0
 10
2.84104
 20
3.59407
 30
0.0
 40
0
 41
0
  0
VERTEX
  8
0
 10
2.83018
 20
3.57406
 30
0.0
 40
0
 41
0
  0
SEQEND
 8
0
  0
POLYLINE
  8
0
 62
     254
 66
     1
 10
0
 20
0
 30
0.0
 70
     1
 40
0
 41
0
  0
VERTEX
  8
0
 10
2.84104
 20
3.59407
 30
0.0
 40
0
 41
0
  0
VERTEX
  8
0
 10
3.34104
 20
3.34407
 30
0.0
 40
0
 41
0
  0
VERTEX
  8
0
 10
3.35069
 20
3.36507
 30
0.0
 40
0
 41
0
  0
VERTEX
  8
0
 10
2.85069
 20
3.61507
 30
0.0
 40
0
 41
0
  0
VERTEX
  8
0
 10
2.84104
 20
3.59407
 30
0.0
 40
0
 41
0
  0
SEQEND
 8
0
  0
POLYLINE
  8
0
 62
     254
 66
     1
 10
0
 20
0
 30
0.0
 70
     1
 40
0
 41
0
  0
VERTEX
  8
0
 10
2.85069
 20
3.61507
 30
0.0
 40
0
 41
0
  0
VERTEX
  8
0
 10
3.35069
 20
3.36507
 30
0.0
 40
0
 41
0
  0
VERTEX
  8
0
 10
3.35921
 20
3.38693
 30
0.0
 40
0
 41
0
  0
VERTEX
  8
0
 10
2.85921
 20
3.63693
 30
0.0
 40
0
 41
0
  0
VERTEX
  8
0
 10
2.85069
 20
3.61507
 30
0.0
 40
0
 41
0
  0
SEQEND
 8
0
  0
POLYLINE
  8
0
 62
     254
 66
     1
 10
0
 20
0
 30
0.0
 70
     1
 40
0
 41
0
  0
VERTEX
  8
0
 10
2.85921
 20
3.63693
 30
0.0
 40
0
 41
0
  0
VERTEX
  8
0
 10
3.35921
 20
3.38693
 30
0.0
 40
0
 41
0
  0
VERTEX
  8
0
 10
3.36654
 20
3.40972
 30
0.0
 40
0
 41
0
  0
VERTEX
  8
0
 10
2.86654
 20
3.65972
 30
0.0
 40
0
 41
0
  0
VERTEX
  8
0
 10
2.85921
 20
3.63693
 30
0.0
 40
0
 41
0
  0
SEQEND
 8
0
  0
POLYLINE
  8
0
 62
     254
 66
     1
 10
0
 20
0
 30
0.0
 70
     1
 40
0
 41
0
  0
VERTEX
  8
0
 10
2.86654
 20
3.65972
 30
0.0
 40
0
 41
0
  0
VERTEX
  8
0
 10
3.36654
 20
3.40972
 30
0.0
 40
0
 41
0
  0
VERTEX
  8
0
 10
3.37272
 20
3.43349
 30
0.0
 40
0
 41
0
  0
VERTEX
  8
0
 10
2.87272
 20
3.68349
 30
0.0
 40
0
 41
0
  0
VERTEX
  8
0
 10
2.86654
 20
3.65972
 30
0.0
 40
0
 41
0
  0
SEQEND
 8
0
  0
POLYLINE
  8
0
 62
     254
 66
     1
 10
0
 20
0
 30
0.0
 70
     1
 40
0
 41
0
  0
VERTEX
  8
0
 10
2.87272
 20
3.68349
 30
0.0
 40
0
 41
0
  0
VERTEX
  8
0
 10
3.37272
 20
3.43349
 30
0.0
 40
0
 41
0
  0
VERTEX
  8
0
 10
3.37776
 20
3.45806
 30
0.0
 40
0
 41
0
  0
VERTEX
  8
0
 10
2.87776
 20
3.70806
 30
0.0
 40
0
 41
0
  0
VERTEX
  8
0
 10
2.87272
 20
3.68349
 30
0.0
 40
0
 41
0
  0
SEQEND
 8
0
  0
POLYLINE
  8
0
 62
     254
 66
     1
 10
0
 20
0
 30
0.0
 70
     1
 40
0
 41
0
  0
VERTEX
  8
0
 10
2.87776
 20
3.70806
 30
0.0
 40
0
 41
0
  0
VERTEX
  8
0
 10
3.37776
 20
3.45806
 30
0.0
 40
0
 41
0
  0
VERTEX
  8
0
 10
3.38172
 20
3.48356
 30
0.0
 40
0
 41
0
  0
VERTEX
  8
0
 10
2.88172
 20
3.73356
 30
0.0
 40
0
 41
0
  0
VERTEX
  8
0
 10
2.87776
 20
3.70806
 30
0.0
 40
0
 41
0
  0
SEQEND
 8
0
  0
POLYLINE
  8
0
 62
     254
 66
     1
 10
0
 20
0
 30
0.0
 70
     1
 40
0
 41
0
  0
VERTEX
  8
0
 10
2.88172
 20
3.73356
 30
0.0
 40
0
 41
0
  0
VERTEX
  8
0
 10
3.38172
 20
3.48356
 30
0.0
 40
0
 41
0
  0
VERTEX
  8
0
 10
3.3845
 20
3.50999
 30
0.0
 40
0
 41
0
  0
VERTEX
  8
0
 10
2.8845
 20
3.75999
 30
0.0
 40
0
 41
0
  0
VERTEX
  8
0
 10
2.88172
 20
3.73356
 30
0.0
 40
0
 41
0
  0
SEQEND
 8
0
  0
POLYLINE
  8
0
 62
     254
 66
     1
 10
0
 20
0
 30
0.0
 70
     1
 40
0
 41
0
  0
VERTEX
  8
0
 10
2.8845
 20
3.75999
 30
0.0
 40
0
 41
0
  0
VERTEX
  8
0
 10
3.3845
 20
3.50999
 30
0.0
 40
0
 41
0
  0
VERTEX
  8
0
 10
3.38618
 20
3.53728
 30
0.0
 40
0
 41
0
  0
VERTEX
  8
0
 10
2.88618
 20
3.78728
 30
0.0
 40
0
 41
0
  0
VERTEX
  8
0
 10
2.8845
 20
3.75999
 30
0.0
 40
0
 41
0
  0
SEQEND
 8
0
  0
POLYLINE
  8
0
 62
     254
 66
     1
 10
0
 20
0
 30
0.0
 70
     1
 40
0
 41
0
  0
VERTEX
  8
0
 10
2.88618
 20
3.78728
 30
0.0
 40
0
 41
0
  0
VERTEX
  8
0
 10
3.38618
 20
3.53728
 30
0.0
 40
0
 41
0
  0
VERTEX
  8
0
 10
3.38672
 20
3.56543
 30
0.0
 40
0
 41
0
  0
VERTEX
  8
0
 10
2.88672
 20
3.81543
 30
0.0
 40
0
 41
0
  0
VERTEX
  8
0
 10
2.88618
 20
3.78728
 30
0.0
 40
0
 41
0
  0
SEQEND
 8
0
  0
POLYLINE
  8
0
 62
     254
 66
     1
 10
0
 20
0
 30
0.0
 70
     1
 40
0
 41
0
  0
VERTEX
  8
0
 10
2.88672
 20
3.81543
 30
0.0
 40
0
 41
0
  0
VERTEX
  8
0
 10
3.38672
 20
3.56543
 30
0.0
 40
0
 41
0
  0
VERTEX
  8
0
 10
3.38618
 20
3.59451
 30
0.0
 40
0
 41
0
  0
VERTEX
  8
0
 10
2.88618
 20
3.84451
 30
0.0
 40
0
 41
0
  0
VERTEX
  8
0
 10
2.88672
 20
3.81543
 30
0.0
 40
0
 41
0
  0
SEQEND
 8
0
  0
POLYLINE
  8
0
 62
     254
 66
     1
 10
0
 20
0
 30
0.0
 70
     1
 40
0
 41
0
  0
VERTEX
  8
0
 10
2.88618
 20
3.84451
 30
0.0
 40
0
 41
0
  0
VERTEX
  8
0
 10
3.38618
 20
3.59451
 30
0.0
 40
0
 41
0
  0
VERTEX
  8
0
 10
3.38456
 20
3.6244
 30
0.0
 40
0
 41
0
  0
VERTEX
  8
0
 10
2.88456
 20
3.8744
 30
0.0
 40
0
 41
0
  0
VERTEX
  8
0
 10
2.88618
 20
3.84451
 30
0.0
 40
0
 41
0
  0
SEQEND
 8
0
  0
POLYLINE
  8
0
 62
     254
 66
     1
 10
0
 20
0
 30
0.0
 70
     1
 40
0
 41
0
  0
VERTEX
  8
0
 10
2.88456
 20
3.8744
 30
0.0
 40
0
 41
0
  0
VERTEX
  8
0
 10
3.38456
 20
3.6244
 30
0.0
 40
0
 41
0
  0
VERTEX
  8
0
 10
3.38178
 20
3.65522
 30
0.0
 40
0
 41
0
  0
VERTEX
  8
0
 10
2.88178
 20
3.90522
 30
0.0
 40
0
 41
0
  0
VERTEX
  8
0
 10
2.88456
 20
3.8744
 30
0.0
 40
0
 41
0
  0
SEQEND
 8
0
  0
POLYLINE
  8
0
 62
     254
 66
     1
 10
0
 20
0
 30
0.0
 70
     1
 40
0
 41
0
  0
VERTEX
  8
0
 10
2.88178
 20
3.90522
 30
0.0
 40
0
 41
0
  0
VERTEX
  8
0
 10
3.38178
 20
3.65522
 30
0.0
 40
0
 41
0
  0
VERTEX
  8
0
 10
3.37793
 20
3.68685
 30
0.0
 40
0
 41
0
  0
VERTEX
  8
0
 10
2.87799
 20
3.93685
 30
0.0
 40
0
 41
0
  0
VERTEX
  8
0
 10
2.88178
 20
3.90522
 30
0.0
 40
0
 41
0
  0
SEQEND
 8
0
  0
POLYLINE
  8
0
 62
     0
 66
     1
 10
0
 20
0
 30
0.0
 70
     1
 40
1.00006
 41
1.00006
  0
VERTEX
  8
0
 10
2.42725
 20
3.37804
 30
0.0
 40
0.0138897
 41
0.0138897
  0
VERTEX
  8
0
 10
2.92725
 20
3.12804
 30
0.0
 40
0.0138897
 41
0.0138897
  0
VERTEX
  8
0
 10
2.96029
 20
3.13049
 30
0.0
 40
0.0138897
 41
0.0138897
  0
VERTEX
  8
0
 10
2.99208
 20
3.1339
 30
0.0
 40
0.0138897
 41
0.0138897
  0
VERTEX
  8
0
 10
3.02257
 20
3.1384
 30
0.0
 40
0.0138897
 41
0.0138897
  0
VERTEX
  8
0
 10
3.05181
 20
3.14387
 30
0.0
 40
0.0138897
 41
0.0138897
  0
VERTEX
  8
0
 10
3.07975
 20
3.15033
 30
0.0
 40
0.0138897
 41
0.0138897
  0
VERTEX
  8
0
 10
3.10644
 20
3.15782
 30
0.0
 40
0.0138897
 41
0.0138897
  0
VERTEX
  8
0
 10
3.13183
 20
3.16635
 30
0.0
 40
0.0138897
 41
0.0138897
  0
VERTEX
  8
0
 10
3.15597
 20
3.17583
 30
0.0
 40
0.0138897
 41
0.0138897
  0
VERTEX
  8
0
 10
3.17893
 20
3.18631
 30
0.0
 40
0.0138897
 41
0.0138897
  0
VERTEX
  8
0
 10
3.20057
 20
3.19775
 30
0.0
 40
0.0138897
 41
0.0138897
  0
VERTEX
  8
0
 10
3.22103
 20
3.21018
 30
0.0
 40
0.0138897
 41
0.0138897
  0
VERTEX
  8
0
 10
3.24024
 20
3.22358
 30
0.0
 40
0.0138897
 41
0.0138897
  0
VERTEX
  8
0
 10
3.25825
 20
3.23796
 30
0.0
 40
0.0138897
 41
0.0138897
  0
VERTEX
  8
0
 10
3.27501
 20
3.25331
 30
0.0
 40
0.0138897
 41
0.0138897
  0
VERTEX
  8
0
 10
3.29064
 20
3.26958
 30
0.0
 40
0.0138897
 41
0.0138897
  0
VERTEX
  8
0
 10
3.30501
 20
3.28678
 30
0.0
 40
0.0138897
 41
0.0138897
  0
VERTEX
  8
0
 10
3.31819
 20
3.30496
 30
0.0
 40
0.0138897
 41
0.0138897
  0
VERTEX
  8
0
 10
3.33018
 20
3.32406
 30
0.0
 40
0.0138897
 41
0.0138897
  0
VERTEX
  8
0
 10
3.34104
 20
3.34407
 30
0.0
 40
0.0138897
 41
0.0138897
  0
VERTEX
  8
0
 10
3.35069
 20
3.36507
 30
0.0
 40
0.0138897
 41
0.0138897
  0
VERTEX
  8
0
 10
3.35921
 20
3.38693
 30
0.0
 40
0.0138897
 41
0.0138897
  0
VERTEX
  8
0
 10
3.36654
 20
3.40972
 30
0.0
 40
0.0138897
 41
0.0138897
  0
VERTEX
  8
0
 10
3.37272
 20
3.43349
 30
0.0
 40
0.0138897
 41
0.0138897
  0
VERTEX
  8
0
 10
3.37776
 20
3.45806
 30
0.0
 40
0.0138897
 41
0.0138897
  0
VERTEX
  8
0
 10
3.38172
 20
3.48356
 30
0.0
 40
0.0138897
 41
0.0138897
  0
VERTEX
  8
0
 10
3.3845
 20
3.50999
 30
0.0
 40
0.0138897
 41
0.0138897
  0
VERTEX
  8
0
 10
3.38618
 20
3.53728
 30
0.0
 40
0.0138897
 41
0.0138897
  0
VERTEX
  8
0
 10
3.38672
 20
3.56543
 30
0.0
 40
0.0138897
 41
0.0138897
  0
VERTEX
  8
0
 10
3.38618
 20
3.59451
 30
0.0
 40
0.0138897
 41
0.0138897
  0
VERTEX
  8
0
 10
3.38456
 20
3.6244
 30
0.0
 40
0.0138897
 41
0.0138897
  0
VERTEX
  8
0
 10
3.38178
 20
3.65522
 30
0.0
 40
0.0138897
 41
0.0138897
  0
VERTEX
  8
0
 10
3.37793
 20
3.68685
 30
0.0
 40
0.0138897
 41
0.0138897
  0
VERTEX
  8
0
 10
2.87799
 20
3.93685
 30
0.0
 40
0.0138897
 41
0.0138897
  0
VERTEX
  8
0
 10
2.88178
 20
3.90522
 30
0.0
 40
0.0138897
 41
0.0138897
  0
VERTEX
  8
0
 10
2.88456
 20
3.8744
 30
0.0
 40
0.0138897
 41
0.0138897
  0
VERTEX
  8
0
 10
2.88618
 20
3.84451
 30
0.0
 40
0.0138897
 41
0.0138897
  0
VERTEX
  8
0
 10
2.88672
 20
3.81543
 30
0.0
 40
0.0138897
 41
0.0138897
  0
VERTEX
  8
0
 10
2.88618
 20
3.78728
 30
0.0
 40
0.0138897
 41
0.0138897
  0
VERTEX
  8
0
 10
2.8845
 20
3.75999
 30
0.0
 40
0.0138897
 41
0.0138897
  0
VERTEX
  8
0
 10
2.88172
 20
3.73356
 30
0.0
 40
0.0138897
 41
0.0138897
  0
VERTEX
  8
0
 10
2.87776
 20
3.70806
 30
0.0
 40
0.0138897
 41
0.0138897
  0
VERTEX
  8
0
 10
2.87272
 20
3.68349
 30
0.0
 40
0.0138897
 41
0.0138897
  0
VERTEX
  8
0
 10
2.86654
 20
3.65972
 30
0.0
 40
0.0138897
 41
0.0138897
  0
VERTEX
  8
0
 10
2.85921
 20
3.63693
 30
0.0
 40
0.0138897
 41
0.0138897
  0
VERTEX
  8
0
 10
2.85069
 20
3.61507
 30
0.0
 40
0.0138897
 41
0.0138897
  0
VERTEX
  8
0
 10
2.84104
 20
3.59407
 30
0.0
 40
0.0138897
 41
0.0138897
  0
VERTEX
  8
0
 10
2.83018
 20
3.57406
 30
0.0
 40
0.0138897
 41
0.0138897
  0
VERTEX
  8
0
 10
2.81819
 20
3.55496
 30
0.0
 40
0.0138897
 41
0.0138897
  0
VERTEX
  8
0
 10
2.80501
 20
3.53678
 30
0.0
 40
0.0138897
 41
0.0138897
  0
VERTEX
  8
0
 10
2.79064
 20
3.51958
 30
0.0
 40
0.0138897
 41
0.0138897
  0
VERTEX
  8
0
 10
2.77501
 20
3.50331
 30
0.0
 40
0.0138897
 41
0.0138897
  0
VERTEX
  8
0
 10
2.75825
 20
3.48796
 30
0.0
 40
0.0138897
 41
0.0138897
  0
VERTEX
  8
0
 10
2.74024
 20
3.47358
 30
0.0
 40
0.0138897
 41
0.0138897
  0
VERTEX
  8
0
 10
2.72103
 20
3.46018
 30
0.0
 40
0.0138897
 41
0.0138897
  0
VERTEX
  8
0
 10
2.70057
 20
3.44775
 30
0.0
 40
0.0138897
 41
0.0138897
  0
VERTEX
  8
0
 10
2.67893
 20
3.43631
 30
0.0
 40
0.0138897
 41
0.0138897
  0
VERTEX
  8
0
 10
2.65597
 20
3.42583
 30
0.0
 40
0.0138897
 41
0.0138897
  0
VERTEX
  8
0
 10
2.63183
 20
3.41635
 30
0.0
 40
0.0138897
 41
0.0138897
  0
VERTEX
  8
0
 10
2.60644
 20
3.40782
 30
0.0
 40
0.0138897
 41
0.0138897
  0
VERTEX
  8
0
 10
2.57975
 20
3.40033
 30
0.0
 40
0.0138897
 41
0.0138897
  0
VERTEX
  8
0
 10
2.55181
 20
3.39387
 30
0.0
 40
0.0138897
 41
0.0138897
  0
VERTEX
  8
0
 10
2.52257
 20
3.3884
 30
0.0
 40
0.0138897
 41
0.0138897
  0
VERTEX
  8
0
 10
2.49208
 20
3.3839
 30
0.0
 40
0.0138897
 41
0.0138897
  0
VERTEX
  8
0
 10
2.46029
 20
3.38049
 30
0.0
 40
0.0138897
 41
0.0138897
  0
VERTEX
  8
0
 10
2.42725
 20
3.37804
 30
0.0
 40
0.0138897
 41
0.0138897
  0
SEQEND
 8
0
  0
POLYLINE
  8
0
 62
     8
 66
     1
 10
0
 20
0
 30
0.0
 70
     1
 40
0
 41
0
  0
VERTEX
  8
0
 10
2.87799
 20
3.93685
 30
0.0
 40
0
 41
0
  0
VERTEX
  8
0
 10
3.37793
 20
3.68685
 30
0.0
 40
0
 41
0
  0
VERTEX
  8
0
 10
3.47954
 20
3.68685
 30
0.0
 40
0
 41
0
  0
VERTEX
  8
0
 10
2.97954
 20
3.93685
 30
0.0
 40
0
 41
0
  0
VERTEX
  8
0
 10
2.87799
 20
3.93685
 30
0.0
 40
0
 41
0
  0
SEQEND
 8
0
  0
POLYLINE
  8
0
 62
     0
 66
     1
 10
0
 20
0
 30
0.0
 70
     1
 40
1.00006
 41
1.00006
  0
VERTEX
  8
0
 10
2.87799
 20
3.93685
 30
0.0
 40
0.0138897
 41
0.0138897
  0
VERTEX
  8
0
 10
3.37793
 20
3.68685
 30
0.0
 40
0.0138897
 41
0.0138897
  0
VERTEX
  8
0
 10
3.47954
 20
3.68685
 30
0.0
 40
0.0138897
 41
0.0138897
  0
VERTEX
  8
0
 10
2.97954
 20
3.93685
 30
0.0
 40
0.0138897
 41
0.0138897
  0
VERTEX
  8
0
 10
2.87799
 20
3.93685
 30
0.0
 40
0.0138897
 41
0.0138897
  0
SEQEND
 8
0
  0
POLYLINE
  8
0
 62
     254
 66
     1
 10
0
 20
0
 30
0.0
 70
     1
 40
0
 41
0
  0
VERTEX
  8
0
 10
2.97954
 20
3.93685
 30
0.0
 40
0
 41
0
  0
VERTEX
  8
0
 10
3.47954
 20
3.68685
 30
0.0
 40
0
 41
0
  0
VERTEX
  8
0
 10
3.49522
 20
3.75489
 30
0.0
 40
0
 41
0
  0
VERTEX
  8
0
 10
2.99522
 20
4.00489
 30
0.0
 40
0
 41
0
  0
VERTEX
  8
0
 10
2.97954
 20
3.93685
 30
0.0
 40
0
 41
0
  0
SEQEND
 8
0
  0
POLYLINE
  8
0
 62
     254
 66
     1
 10
0
 20
0
 30
0.0
 70
     1
 40
0
 41
0
  0
VERTEX
  8
0
 10
2.99522
 20
4.00489
 30
0.0
 40
0
 41
0
  0
VERTEX
  8
0
 10
3.49522
 20
3.75489
 30
0.0
 40
0
 41
0
  0
VERTEX
  8
0
 10
3.51161
 20
3.82075
 30
0.0
 40
0
 41
0
  0
VERTEX
  8
0
 10
3.01161
 20
4.07075
 30
0.0
 40
0
 41
0
  0
VERTEX
  8
0
 10
2.99522
 20
4.00489
 30
0.0
 40
0
 41
0
  0
SEQEND
 8
0
  0
POLYLINE
  8
0
 62
     254
 66
     1
 10
0
 20
0
 30
0.0
 70
     1
 40
0
 41
0
  0
VERTEX
  8
0
 10
3.01161
 20
4.07075
 30
0.0
 40
0
 41
0
  0
VERTEX
  8
0
 10
3.51161
 20
3.82075
 30
0.0
 40
0
 41
0
  0
VERTEX
  8
0
 10
3.52875
 20
3.88444
 30
0.0
 40
0
 41
0
  0
VERTEX
  8
0
 10
3.02875
 20
4.13444
 30
0.0
 40
0
 41
0
  0
VERTEX
  8
0
 10
3.01161
 20
4.07075
 30
0.0
 40
0
 41
0
  0
SEQEND
 8
0
  0
POLYLINE
  8
0
 62
     254
 66
     1
 10
0
 20
0
 30
0.0
 70
     1
 40
0
 41
0
  0
VERTEX
  8
0
 10
3.02875
 20
4.13444
 30
0.0
 40
0
 41
0
  0
VERTEX
  8
0
 10
3.52875
 20
3.88444
 30
0.0
 40
0
 41
0
  0
VERTEX
  8
0
 10
3.54676
 20
3.94607
 30
0.0
 40
0
 41
0
  0
VERTEX
  8
0
 10
3.04676
 20
4.19607
 30
0.0
 40
0
 41
0
  0
VERTEX
  8
0
 10
3.02875
 20
4.13444
 30
0.0
 40
0
 41
0
  0
SEQEND
 8
0
  0
POLYLINE
  8
0
 62
     254
 66
     1
 10
0
 20
0
 30
0.0
 70
     1
 40
0
 41
0
  0
VERTEX
  8
0
 10
3.04676
 20
4.19607
 30
0.0
 40
0
 41
0
  0
VERTEX
  8
0
 10
3.54676
 20
3.94607
 30
0.0
 40
0
 41
0
  0
VERTEX
  8
0
 10
3.56569
 20
4.00564
 30
0.0
 40
0
 41
0
  0
VERTEX
  8
0
 10
3.06575
 20
4.25564
 30
0.0
 40
0
 41
0
  0
VERTEX
  8
0
 10
3.04676
 20
4.19607
 30
0.0
 40
0
 41
0
  0
SEQEND
 8
0
  0
POLYLINE
  8
0
 62
     254
 66
     1
 10
0
 20
0
 30
0.0
 70
     1
 40
0
 41
0
  0
VERTEX
  8
0
 10
3.06575
 20
4.25564
 30
0.0
 40
0
 41
0
  0
VERTEX
  8
0
 10
3.56569
 20
4.00564
 30
0.0
 40
0
 41
0
  0
VERTEX
  8
0
 10
3.58561
 20
4.06321
 30
0.0
 40
0
 41
0
  0
VERTEX
  8
0
 10
3.08567
 20
4.31321
 30
0.0
 40
0
 41
0
  0
VERTEX
  8
0
 10
3.06575
 20
4.25564
 30
0.0
 40
0
 41
0
  0
SEQEND
 8
0
  0
POLYLINE
  8
0
 62
     254
 66
     1
 10
0
 20
0
 30
0.0
 70
     1
 40
0
 41
0
  0
VERTEX
  8
0
 10
3.08567
 20
4.31321
 30
0.0
 40
0
 41
0
  0
VERTEX
  8
0
 10
3.58561
 20
4.06321
 30
0.0
 40
0
 41
0
  0
VERTEX
  8
0
 10
3.60661
 20
4.11882
 30
0.0
 40
0
 41
0
  0
VERTEX
  8
0
 10
3.10661
 20
4.36882
 30
0.0
 40
0
 41
0
  0
VERTEX
  8
0
 10
3.08567
 20
4.31321
 30
0.0
 40
0
 41
0
  0
SEQEND
 8
0
  0
POLYLINE
  8
0
 62
     254
 66
     1
 10
0
 20
0
 30
0.0
 70
     1
 40
0
 41
0
  0
VERTEX
  8
0
 10
3.10661
 20
4.36882
 30
0.0
 40
0
 41
0
  0
VERTEX
  8
0
 10
3.60661
 20
4.11882
 30
0.0
 40
0
 41
0
  0
VERTEX
  8
0
 10
3.62864
 20
4.17253
 30
0.0
 40
0
 41
0
  0
VERTEX
  8
0
 10
3.12864
 20
4.42253
 30
0.0
 40
0
 41
0
  0
VERTEX
  8
0
 10
3.10661
 20
4.36882
 30
0.0
 40
0
 41
0
  0
SEQEND
 8
0
  0
POLYLINE
  8
0
 62
     254
 66
     1
 10
0
 20
0
 30
0.0
 70
     1
 40
0
 41
0
  0
VERTEX
  8
0
 10
3.12864
 20
4.42253
 30
0.0
 40
0
 41
0
  0
VERTEX
  8
0
 10
3.62864
 20
4.17253
 30
0.0
 40
0
 41
0
  0
VERTEX
  8
0
 10
3.65181
 20
4.22433
 30
0.0
 40
0
 41
0
  0
VERTEX
  8
0
 10
3.15181
 20
4.47433
 30
0.0
 40
0
 41
0
  0
VERTEX
  8
0
 10
3.12864
 20
4.42253
 30
0.0
 40
0
 41
0
  0
SEQEND
 8
0
  0
POLYLINE
  8
0
 62
     254
 66
     1
 10
0
 20
0
 30
0.0
 70
     1
 40
0
 41
0
  0
VERTEX
  8
0
 10
3.15181
 20
4.47433
 30
0.0
 40
0
 41
0
  0
VERTEX
  8
0
 10
3.65181
 20
4.22433
 30
0.0
 40
0
 41
0
  0
VERTEX
  8
0
 10
3.67622
 20
4.27436
 30
0.0
 40
0
 41
0
  0
VERTEX
  8
0
 10
3.17622
 20
4.52436
 30
0.0
 40
0
 41
0
  0
VERTEX
  8
0
 10
3.15181
 20
4.47433
 30
0.0
 40
0
 41
0
  0
SEQEND
 8
0
  0
POLYLINE
  8
0
 62
     254
 66
     1
 10
0
 20
0
 30
0.0
 70
     1
 40
0
 41
0
  0
VERTEX
  8
0
 10
3.17622
 20
4.52436
 30
0.0
 40
0
 41
0
  0
VERTEX
  8
0
 10
3.67622
 20
4.27436
 30
0.0
 40
0
 41
0
  0
VERTEX
  8
0
 10
3.70193
 20
4.3226
 30
0.0
 40
0
 41
0
  0
VERTEX
  8
0
 10
3.20193
 20
4.5726
 30
0.0
 40
0
 41
0
  0
VERTEX
  8
0
 10
3.17622
 20
4.52436
 30
0.0
 40
0
 41
0
  0
SEQEND
 8
0
  0
POLYLINE
  8
0
 62
     254
 66
     1
 10
0
 20
0
 30
0.0
 70
     1
 40
0
 41
0
  0
VERTEX
  8
0
 10
3.20193
 20
4.5726
 30
0.0
 40
0
 41
0
  0
VERTEX
  8
0
 10
3.70193
 20
4.3226
 30
0.0
 40
0
 41
0
  0
VERTEX
  8
0
 10
3.72894
 20
4.36914
 30
0.0
 40
0
 41
0
  0
VERTEX
  8
0
 10
3.22894
 20
4.61914
 30
0.0
 40
0
 41
0
  0
VERTEX
  8
0
 10
3.20193
 20
4.5726
 30
0.0
 40
0
 41
0
  0
SEQEND
 8
0
  0
POLYLINE
  8
0
 62
     254
 66
     1
 10
0
 20
0
 30
0.0
 70
     1
 40
0
 41
0
  0
VERTEX
  8
0
 10
3.22894
 20
4.61914
 30
0.0
 40
0
 41
0
  0
VERTEX
  8
0
 10
3.72894
 20
4.36914
 30
0.0
 40
0
 41
0
  0
VERTEX
  8
0
 10
3.75738
 20
4.41401
 30
0.0
 40
0
 41
0
  0
VERTEX
  8
0
 10
3.25738
 20
4.66401
 30
0.0
 40
0
 41
0
  0
VERTEX
  8
0
 10
3.22894
 20
4.61914
 30
0.0
 40
0
 41
0
  0
SEQEND
 8
0
  0
POLYLINE
  8
0
 62
     254
 66
     1
 10
0
 20
0
 30
0.0
 70
     1
 40
0
 41
0
  0
VERTEX
  8
0
 10
3.25738
 20
4.66401
 30
0.0
 40
0
 41
0
  0
VERTEX
  8
0
 10
3.75738
 20
4.41401
 30
0.0
 40
0
 41
0
  0
VERTEX
  8
0
 10
3.78722
 20
4.45719
 30
0.0
 40
0
 41
0
  0
VERTEX
  8
0
 10
3.28728
 20
4.70719
 30
0.0
 40
0
 41
0
  0
VERTEX
  8
0
 10
3.25738
 20
4.66401
 30
0.0
 40
0
 41
0
  0
SEQEND
 8
0
  0
POLYLINE
  8
0
 62
     254
 66
     1
 10
0
 20
0
 30
0.0
 70
     1
 40
0
 41
0
  0
VERTEX
  8
0
 10
3.28728
 20
4.70719
 30
0.0
 40
0
 41
0
  0
VERTEX
  8
0
 10
3.78722
 20
4.45719
 30
0.0
 40
0
 41
0
  0
VERTEX
  8
0
 10
3.81863
 20
4.49886
 30
0.0
 40
0
 41
0
  0
VERTEX
  8
0
 10
3.31862
 20
4.74886
 30
0.0
 40
0
 41
0
  0
VERTEX
  8
0
 10
3.28728
 20
4.70719
 30
0.0
 40
0
 41
0
  0
SEQEND
 8
0
  0
POLYLINE
  8
0
 62
     254
 66
     1
 10
0
 20
0
 30
0.0
 70
     1
 40
0
 41
0
  0
VERTEX
  8
0
 10
3.31862
 20
4.74886
 30
0.0
 40
0
 41
0
  0
VERTEX
  8
0
 10
3.81863
 20
4.49886
 30
0.0
 40
0
 41
0
  0
VERTEX
  8
0
 10
3.85161
 20
4.53896
 30
0.0
 40
0
 41
0
  0
VERTEX
  8
0
 10
3.35161
 20
4.78896
 30
0.0
 40
0
 41
0
  0
VERTEX
  8
0
 10
3.31862
 20
4.74886
 30
0.0
 40
0
 41
0
  0
SEQEND
 8
0
  0
POLYLINE
  8
0
 62
     254
 66
     1
 10
0
 20
0
 30
0.0
 70
     1
 40
0
 41
0
  0
VERTEX
  8
0
 10
3.35161
 20
4.78896
 30
0.0
 40
0
 41
0
  0
VERTEX
  8
0
 10
3.85161
 20
4.53896
 30
0.0
 40
0
 41
0
  0
VERTEX
  8
0
 10
3.88624
 20
4.57758
 30
0.0
 40
0
 41
0
  0
VERTEX
  8
0
 10
3.38624
 20
4.82758
 30
0.0
 40
0
 41
0
  0
VERTEX
  8
0
 10
3.35161
 20
4.78896
 30
0.0
 40
0
 41
0
  0
SEQEND
 8
0
  0
POLYLINE
  8
0
 62
     254
 66
     1
 10
0
 20
0
 30
0.0
 70
     1
 40
0
 41
0
  0
VERTEX
  8
0
 10
3.38624
 20
4.82758
 30
0.0
 40
0
 41
0
  0
VERTEX
  8
0
 10
3.88624
 20
4.57758
 30
0.0
 40
0
 41
0
  0
VERTEX
  8
0
 10
3.92253
 20
4.61475
 30
0.0
 40
0
 41
0
  0
VERTEX
  8
0
 10
3.42253
 20
4.86475
 30
0.0
 40
0
 41
0
  0
VERTEX
  8
0
 10
3.38624
 20
4.82758
 30
0.0
 40
0
 41
0
  0
SEQEND
 8
0
  0
POLYLINE
  8
0
 62
     254
 66
     1
 10
0
 20
0
 30
0.0
 70
     1
 40
0
 41
0
  0
VERTEX
  8
0
 10
3.42253
 20
4.86475
 30
0.0
 40
0
 41
0
  0
VERTEX
  8
0
 10
3.92253
 20
4.61475
 30
0.0
 40
0
 41
0
  0
VERTEX
  8
0
 10
3.96061
 20
4.65056
 30
0.0
 40
0
 41
0
  0
VERTEX
  8
0
 10
3.46061
 20
4.90056
 30
0.0
 40
0
 41
0
  0
VERTEX
  8
0
 10
3.42253
 20
4.86475
 30
0.0
 40
0
 41
0
  0
SEQEND
 8
0
  0
POLYLINE
  8
0
 62
     254
 66
     1
 10
0
 20
0
 30
0.0
 70
     1
 40
0
 41
0
  0
VERTEX
  8
0
 10
3.46061
 20
4.90056
 30
0.0
 40
0
 41
0
  0
VERTEX
  8
0
 10
3.96061
 20
4.65056
 30
0.0
 40
0
 41
0
  0
VERTEX
  8
0
 10
4.00049
 20
4.685
 30
0.0
 40
0
 41
0
  0
VERTEX
  8
0
 10
3.50049
 20
4.935
 30
0.0
 40
0
 41
0
  0
VERTEX
  8
0
 10
3.46061
 20
4.90056
 30
0.0
 40
0
 41
0
  0
SEQEND
 8
0
  0
POLYLINE
  8
0
 62
     254
 66
     1
 10
0
 20
0
 30
0.0
 70
     1
 40
0
 41
0
  0
VERTEX
  8
0
 10
3.50049
 20
4.935
 30
0.0
 40
0
 41
0
  0
VERTEX
  8
0
 10
4.00049
 20
4.685
 30
0.0
 40
0
 41
0
  0
VERTEX
  8
0
 10
4.04221
 20
4.7181
 30
0.0
 40
0
 41
0
  0
VERTEX
  8
0
 10
3.54226
 20
4.9681
 30
0.0
 40
0
 41
0
  0
VERTEX
  8
0
 10
3.50049
 20
4.935
 30
0.0
 40
0
 41
0
  0
SEQEND
 8
0
  0
POLYLINE
  8
0
 62
     33
 66
     1
 10
0
 20
0
 30
0.0
 70
     1
 40
0
 41
0
  0
VERTEX
  8
0
 10
3.54226
 20
4.9681
 30
0.0
 40
0
 41
0
  0
VERTEX
  8
0
 10
4.04221
 20
4.7181
 30
0.0
 40
0
 41
0
  0
VERTEX
  8
0
 10
4.08594
 20
4.75
 30
0.0
 40
0
 41
0
  0
VERTEX
  8
0
 10
3.58594
 20
5
 30
0.0
 40
0
 41
0
  0
VERTEX
  8
0
 10
3.54226
 20
4.9681
 30
0.0
 40
0
 41
0
  0
SEQEND
 8
0
  0
POLYLINE
  8
0
 62
     33
 66
     1
 10
0
 20
0
 30
0.0
 70
     1
 40
0
 41
0
  0
VERTEX
  8
0
 10
3.58594
 20
5
 30
0.0
 40
0
 41
0
  0
VERTEX
  8
0
 10
4.08594
 20
4.75
 30
0.0
 40
0
 41
0
  0
VERTEX
  8
0
 10
4.13162
 20
4.78071
 30
0.0
 40
0
 41
0
  0
VERTEX
  8
0
 10
3.63162
 20
5.03071
 30
0.0
 40
0
 41
0
  0
VERTEX
  8
0
 10
3.58594
 20
5
 30
0.0
 40
0
 41
0
  0
SEQEND
 8
0
  0
POLYLINE
  8
0
 62
     253
 66
     1
 10
0
 20
0
 30
0.0
 70
     1
 40
0
 41
0
  0
VERTEX
  8
0
 10
3.63162
 20
5.03071
 30
0.0
 40
0
 41
0
  0
VERTEX
  8
0
 10
4.13162
 20
4.78071
 30
0.0
 40
0
 41
0
  0
VERTEX
  8
0
 10
4.17936
 20
4.81022
 30
0.0
 40
0
 41
0
  0
VERTEX
  8
0
 10
3.67936
 20
5.06022
 30
0.0
 40
0
 41
0
  0
VERTEX
  8
0
 10
3.63162
 20
5.03071
 30
0.0
 40
0
 41
0
  0
SEQEND
 8
0
  0
POLYLINE
  8
0
 62
     253
 66
     1
 10
0
 20
0
 30
0.0
 70
     1
 40
0
 41
0
  0
VERTEX
  8
0
 10
3.67936
 20
5.06022
 30
0.0
 40
0
 41
0
  0
VERTEX
  8
0
 10
4.17936
 20
4.81022
 30
0.0
 40
0
 41
0
  0
VERTEX
  8
0
 10
4.22928
 20
4.8386
 30
0.0
 40
0
 41
0
  0
VERTEX
  8
0
 10
3.72928
 20
5.0886
 30
0.0
 40
0
 41
0
  0
VERTEX
  8
0
 10
3.67936
 20
5.06022
 30
0.0
 40
0
 41
0
  0
SEQEND
 8
0
  0
POLYLINE
  8
0
 62
     253
 66
     1
 10
0
 20
0
 30
0.0
 70
     1
 40
0
 41
0
  0
VERTEX
  8
0
 10
3.72928
 20
5.0886
 30
0.0
 40
0
 41
0
  0
VERTEX
  8
0
 10
4.22928
 20
4.8386
 30
0.0
 40
0
 41
0
  0
VERTEX
  8
0
 10
4.28131
 20
4.86594
 30
0.0
 40
0
 41
0
  0
VERTEX
  8
0
 10
3.78131
 20
5.11594
 30
0.0
 40
0
 41
0
  0
VERTEX
  8
0
 10
3.72928
 20
5.0886
 30
0.0
 40
0
 41
0
  0
SEQEND
 8
0
  0
POLYLINE
  8
0
 62
     253
 66
     1
 10
0
 20
0
 30
0.0
 70
     1
 40
0
 41
0
  0
VERTEX
  8
0
 10
3.78131
 20
5.11594
 30
0.0
 40
0
 41
0
  0
VERTEX
  8
0
 10
4.28131
 20
4.86594
 30
0.0
 40
0
 41
0
  0
VERTEX
  8
0
 10
4.33561
 20
4.89225
 30
0.0
 40
0
 41
0
  0
VERTEX
  8
0
 10
3.83561
 20
5.14225
 30
0.0
 40
0
 41
0
  0
VERTEX
  8
0
 10
3.78131
 20
5.11594
 30
0.0
 40
0
 41
0
  0
SEQEND
 8
0
  0
POLYLINE
  8
0
 62
     253
 66
     1
 10
0
 20
0
 30
0.0
 70
     1
 40
0
 41
0
  0
VERTEX
  8
0
 10
3.83561
 20
5.14225
 30
0.0
 40
0
 41
0
  0
VERTEX
  8
0
 10
4.33561
 20
4.89225
 30
0.0
 40
0
 41
0
  0
VERTEX
  8
0
 10
4.39219
 20
4.91758
 30
0.0
 40
0
 41
0
  0
VERTEX
  8
0
 10
3.89219
 20
5.16758
 30
0.0
 40
0
 41
0
  0
VERTEX
  8
0
 10
3.83561
 20
5.14225
 30
0.0
 40
0
 41
0
  0
SEQEND
 8
0
  0
POLYLINE
  8
0
 62
     253
 66
     1
 10
0
 20
0
 30
0.0
 70
     1
 40
0
 41
0
  0
VERTEX
  8
0
 10
3.89219
 20
5.16758
 30
0.0
 40
0
 41
0
  0
VERTEX
  8
0
 10
4.39219
 20
4.91758
 30
0.0
 40
0
 41
0
  0
VERTEX
  8
0
 10
4.45111
 20
4.942
 30
0.0
 40
0
 41
0
  0
VERTEX
  8
0
 10
3.95111
 20
5.192
 30
0.0
 40
0
 41
0
  0
VERTEX
  8
0
 10
3.89219
 20
5.16758
 30
0.0
 40
0
 41
0
  0
SEQEND
 8
0
  0
POLYLINE
  8
0
 62
     253
 66
     1
 10
0
 20
0
 30
0.0
 70
     1
 40
0
 41
0
  0
VERTEX
  8
0
 10
3.95111
 20
5.192
 30
0.0
 40
0
 41
0
  0
VERTEX
  8
0
 10
4.45111
 20
4.942
 30
0.0
 40
0
 41
0
  0
VERTEX
  8
0
 10
4.51247
 20
4.96556
 30
0.0
 40
0
 41
0
  0
VERTEX
  8
0
 10
4.01253
 20
5.21556
 30
0.0
 40
0
 41
0
  0
VERTEX
  8
0
 10
3.95111
 20
5.192
 30
0.0
 40
0
 41
0
  0
SEQEND
 8
0
  0
POLYLINE
  8
0
 62
     253
 66
     1
 10
0
 20
0
 30
0.0
 70
     1
 40
0
 41
0
  0
VERTEX
  8
0
 10
4.01253
 20
5.21556
 30
0.0
 40
0
 41
0
  0
VERTEX
  8
0
 10
4.51247
 20
4.96556
 30
0.0
 40
0
 41
0
  0
VERTEX
  8
0
 10
4.57633
 20
4.98822
 30
0.0
 40
0
 41
0
  0
VERTEX
  8
0
 10
4.07633
 20
5.23822
 30
0.0
 40
0
 41
0
  0
VERTEX
  8
0
 10
4.01253
 20
5.21556
 30
0.0
 40
0
 41
0
  0
SEQEND
 8
0
  0
POLYLINE
  8
0
 62
     9
 66
     1
 10
0
 20
0
 30
0.0
 70
     1
 40
0
 41
0
  0
VERTEX
  8
0
 10
4.07633
 20
5.23822
 30
0.0
 40
0
 41
0
  0
VERTEX
  8
0
 10
4.57633
 20
4.98822
 30
0.0
 40
0
 41
0
  0
VERTEX
  8
0
 10
4.64274
 20
5.01014
 30
0.0
 40
0
 41
0
  0
VERTEX
  8
0
 10
4.14274
 20
5.26014
 30
0.0
 40
0
 41
0
  0
VERTEX
  8
0
 10
4.07633
 20
5.23822
 30
0.0
 40
0
 41
0
  0
SEQEND
 8
0
  0
POLYLINE
  8
0
 62
     0
 66
     1
 10
0
 20
0
 30
0.0
 70
     1
 40
1.00006
 41
1.00006
  0
VERTEX
  8
0
 10
2.97954
 20
3.93685
 30
0.0
 40
0.0138897
 41
0.0138897
  0
VERTEX
  8
0
 10
3.47954
 20
3.68685
 30
0.0
 40
0.0138897
 41
0.0138897
  0
VERTEX
  8
0
 10
3.49522
 20
3.75489
 30
0.0
 40
0.0138897
 41
0.0138897
  0
VERTEX
  8
0
 10
3.51161
 20
3.82075
 30
0.0
 40
0.0138897
 41
0.0138897
  0
VERTEX
  8
0
 10
3.52875
 20
3.88444
 30
0.0
 40
0.0138897
 41
0.0138897
  0
VERTEX
  8
0
 10
3.54676
 20
3.94607
 30
0.0
 40
0.0138897
 41
0.0138897
  0
VERTEX
  8
0
 10
3.56569
 20
4.00564
 30
0.0
 40
0.0138897
 41
0.0138897
  0
VERTEX
  8
0
 10
3.58561
 20
4.06321
 30
0.0
 40
0.0138897
 41
0.0138897
  0
VERTEX
  8
0
 10
3.60661
 20
4.11882
 30
0.0
 40
0.0138897
 41
0.0138897
  0
VERTEX
  8
0
 10
3.62864
 20
4.17253
 30
0.0
 40
0.0138897
 41
0.0138897
  0
VERTEX
  8
0
 10
3.65181
 20
4.22433
 30
0.0
 40
0.0138897
 41
0.0138897
  0
VERTEX
  8
0
 10
3.67622
 20
4.27436
 30
0.0
 40
0.0138897
 41
0.0138897
  0
VERTEX
  8
0
 10
3.70193
 20
4.3226
 30
0.0
 40
0.0138897
 41
0.0138897
  0
VERTEX
  8
0
 10
3.72894
 20
4.36914
 30
0.0
 40
0.0138897
 41
0.0138897
  0
VERTEX
  8
0
 10
3.75738
 20
4.41401
 30
0.0
 40
0.0138897
 41
0.0138897
  0
VERTEX
  8
0
 10
3.78722
 20
4.45719
 30
0.0
 40
0.0138897
 41
0.0138897
  0
VERTEX
  8
0
 10
3.81863
 20
4.49886
 30
0.0
 40
0.0138897
 41
0.0138897
  0
VERTEX
  8
0
 10
3.85161
 20
4.53896
 30
0.0
 40
0.0138897
 41
0.0138897
  0
VERTEX
  8
0
 10
3.88624
 20
4.57758
 30
0.0
 40
0.0138897
 41
0.0138897
  0
VERTEX
  8
0
 10
3.92253
 20
4.61475
 30
0.0
 40
0.0138897
 41
0.0138897
  0
VERTEX
  8
0
 10
3.96061
 20
4.65056
 30
0.0
 40
0.0138897
 41
0.0138897
  0
VERTEX
  8
0
 10
4.00049
 20
4.685
 30
0.0
 40
0.0138897
 41
0.0138897
  0
VERTEX
  8
0
 10
4.04221
 20
4.7181
 30
0.0
 40
0.0138897
 41
0.0138897
  0
VERTEX
  8
0
 10
4.08594
 20
4.75
 30
0.0
 40
0.0138897
 41
0.0138897
  0
VERTEX
  8
0
 10
4.13162
 20
4.78071
 30
0.0
 40
0.0138897
 41
0.0138897
  0
VERTEX
  8
0
 10
4.17936
 20
4.81022
 30
0.0
 40
0.0138897
 41
0.0138897
  0
VERTEX
  8
0
 10
4.22928
 20
4.8386
 30
0.0
 40
0.0138897
 41
0.0138897
  0
VERTEX
  8
0
 10
4.28131
 20
4.86594
 30
0.0
 40
0.0138897
 41
0.0138897
  0
VERTEX
  8
0
 10
4.33561
 20
4.89225
 30
0.0
 40
0.0138897
 41
0.0138897
  0
VERTEX
  8
0
 10
4.39219
 20
4.91758
 30
0.0
 40
0.0138897
 41
0.0138897
  0
VERTEX
  8
0
 10
4.45111
 20
4.942
 30
0.0
 40
0.0138897
 41
0.0138897
  0
VERTEX
  8
0
 10
4.51247
 20
4.96556
 30
0.0
 40
0.0138897
 41
0.0138897
  0
VERTEX
  8
0
 10
4.57633
 20
4.98822
 30
0.0
 40
0.0138897
 41
0.0138897
  0
VERTEX
  8
0
 10
4.64274
 20
5.01014
 30
0.0
 40
0.0138897
 41
0.0138897
  0
VERTEX
  8
0
 10
4.14274
 20
5.26014
 30
0.0
 40
0.0138897
 41
0.0138897
  0
VERTEX
  8
0
 10
4.07633
 20
5.23822
 30
0.0
 40
0.0138897
 41
0.0138897
  0
VERTEX
  8
0
 10
4.01253
 20
5.21556
 30
0.0
 40
0.0138897
 41
0.0138897
  0
VERTEX
  8
0
 10
3.95111
 20
5.192
 30
0.0
 40
0.0138897
 41
0.0138897
  0
VERTEX
  8
0
 10
3.89219
 20
5.16758
 30
0.0
 40
0.0138897
 41
0.0138897
  0
VERTEX
  8
0
 10
3.83561
 20
5.14225
 30
0.0
 40
0.0138897
 41
0.0138897
  0
VERTEX
  8
0
 10
3.78131
 20
5.11594
 30
0.0
 40
0.0138897
 41
0.0138897
  0
VERTEX
  8
0
 10
3.72928
 20
5.0886
 30
0.0
 40
0.0138897
 41
0.0138897
  0
VERTEX
  8
0
 10
3.67936
 20
5.06022
 30
0.0
 40
0.0138897
 41
0.0138897
  0
VERTEX
  8
0
 10
3.63162
 20
5.03071
 30
0.0
 40
0.0138897
 41
0.0138897
  0
VERTEX
  8
0
 10
3.58594
 20
5
 30
0.0
 40
0.0138897
 41
0.0138897
  0
VERTEX
  8
0
 10
3.54226
 20
4.9681
 30
0.0
 40
0.0138897
 41
0.0138897
  0
VERTEX
  8
0
 10
3.50049
 20
4.935
 30
0.0
 40
0.0138897
 41
0.0138897
  0
VERTEX
  8
0
 10
3.46061
 20
4.90056
 30
0.0
 40
0.0138897
 41
0.0138897
  0
VERTEX
  8
0
 10
3.42253
 20
4.86475
 30
0.0
 40
0.0138897
 41
0.0138897
  0
VERTEX
  8
0
 10
3.38624
 20
4.82758
 30
0.0
 40
0.0138897
 41
0.0138897
  0
VERTEX
  8
0
 10
3.35161
 20
4.78896
 30
0.0
 40
0.0138897
 41
0.0138897
  0
VERTEX
  8
0
 10
3.31862
 20
4.74886
 30
0.0
 40
0.0138897
 41
0.0138897
  0
VERTEX
  8
0
 10
3.28728
 20
4.70719
 30
0.0
 40
0.0138897
 41
0.0138897
  0
VERTEX
  8
0
 10
3.25738
 20
4.66401
 30
0.0
 40
0.0138897
 41
0.0138897
  0
VERTEX
  8
0
 10
3.22894
 20
4.61914
 30
0.0
 40
0.0138897
 41
0.0138897
  0
VERTEX
  8
0
 10
3.20193
 20
4.5726
 30
0.0
 40
0.0138897
 41
0.0138897
  0
VERTEX
  8
0
 10
3.17622
 20
4.52436
 30
0.0
 40
0.0138897
 41
0.0138897
  0
VERTEX
  8
0
 10
3.15181
 20
4.47433
 30
0.0
 40
0.0138897
 41
0.0138897
  0
VERTEX
  8
0
 10
3.12864
 20
4.42253
 30
0.0
 40
0.0138897
 41
0.0138897
  0
VERTEX
  8
0
 10
3.10661
 20
4.36882
 30
0.0
 40
0.0138897
 41
0.0138897
  0
VERTEX
  8
0
 10
3.08567
 20
4.31321
 30
0.0
 40
0.0138897
 41
0.0138897
  0
VERTEX
  8
0
 10
3.06575
 20
4.25564
 30
0.0
 40
0.0138897
 41
0.0138897
  0
VERTEX
  8
0
 10
3.04676
 20
4.19607
 30
0.0
 40
0.0138897
 41
0.0138897
  0
VERTEX
  8
0
 10
3.02875
 20
4.13444
 30
0.0
 40
0.0138897
 41
0.0138897
  0
VERTEX
  8
0
 10
3.01161
 20
4.07075
 30
0.0
 40
0.0138897
 41
0.0138897
  0
VERTEX
  8
0
 10
2.99522
 20
4.00489
 30
0.0
 40
0.0138897
 41
0.0138897
  0
VERTEX
  8
0
 10
2.97954
 20
3.93685
 30
0.0
 40
0.0138897
 41
0.0138897
  0
SEQEND
 8
0
  0
POLYLINE
  8
0
 62
     254
 66
     1
 10
0
 20
0
 30
0.0
 70
     1
 40
0
 41
0
  0
VERTEX
  8
0
 10
4.14274
 20
5.26014
 30
0.0
 40
0
 41
0
  0
VERTEX
  8
0
 10
4.64274
 20
5.01014
 30
0.0
 40
0
 41
0
  0
VERTEX
  8
0
 10
4.64274
 20
5.16271
 30
0.0
 40
0
 41
0
  0
VERTEX
  8
0
 10
4.14274
 20
5.41271
 30
0.0
 40
0
 41
0
  0
VERTEX
  8
0
 10
4.14274
 20
5.26014
 30
0.0
 40
0
 41
0
  0
SEQEND
 8
0
  0
POLYLINE
  8
0
 62
     0
 66
     1
 10
0
 20
0
 30
0.0
 70
     1
 40
1.00006
 41
1.00006
  0
VERTEX
  8
0
 10
4.14274
 20
5.26014
 30
0.0
 40
0.0138897
 41
0.0138897
  0
VERTEX
  8
0
 10
4.64274
 20
5.01014
 30
0.0
 40
0.0138897
 41
0.0138897
  0
VERTEX
  8
0
 10
4.64274
 20
5.16271
 30
0.0
 40
0.0138897
 41
0.0138897
  0
VERTEX
  8
0
 10
4.14274
 20
5.41271
 30
0.0
 40
0.0138897
 41
0.0138897
  0
VERTEX
  8
0
 10
4.14274
 20
5.26014
 30
0.0
 40
0.0138897
 41
0.0138897
  0
SEQEND
 8
0
  0
POLYLINE
  8
0
 62
     252
 66
     1
 10
0
 20
0
 30
0.0
 70
     1
 40
0
 41
0
  0
VERTEX
  8
0
 10
4.14274
 20
5.41271
 30
0.0
 40
0
 41
0
  0
VERTEX
  8
0
 10
4.64274
 20
5.16271
 30
0.0
 40
0
 41
0
  0
VERTEX
  8
0
 10
4.66151
 20
5.16656
 30
0.0
 40
0
 41
0
  0
VERTEX
  8
0
 10
4.16151
 20
5.41656
 30
0.0
 40
0
 41
0
  0
VERTEX
  8
0
 10
4.14274
 20
5.41271
 30
0.0
 40
0
 41
0
  0
SEQEND
 8
0
  0
POLYLINE
  8
0
 62
     252
 66
     1
 10
0
 20
0
 30
0.0
 70
     1
 40
0
 41
0
  0
VERTEX
  8
0
 10
4.16151
 20
5.41656
 30
0.0
 40
0
 41
0
  0
VERTEX
  8
0
 10
4.66151
 20
5.16656
 30
0.0
 40
0
 41
0
  0
VERTEX
  8
0
 10
4.68024
 20
5.17139
 30
0.0
 40
0
 41
0
  0
VERTEX
  8
0
 10
4.18024
 20
5.42139
 30
0.0
 40
0
 41
0
  0
VERTEX
  8
0
 10
4.16151
 20
5.41656
 30
0.0
 40
0
 41
0
  0
SEQEND
 8
0
  0
POLYLINE
  8
0
 62
     9
 66
     1
 10
0
 20
0
 30
0.0
 70
     1
 40
0
 41
0
  0
VERTEX
  8
0
 10
4.18024
 20
5.42139
 30
0.0
 40
0
 41
0
  0
VERTEX
  8
0
 10
4.68024
 20
5.17139
 30
0.0
 40
0
 41
0
  0
VERTEX
  8
0
 10
4.69883
 20
5.17725
 30
0.0
 40
0
 41
0
  0
VERTEX
  8
0
 10
4.19883
 20
5.42725
 30
0.0
 40
0
 41
0
  0
VERTEX
  8
0
 10
4.18024
 20
5.42139
 30
0.0
 40
0
 41
0
  0
SEQEND
 8
0
  0
POLYLINE
  8
0
 62
     253
 66
     1
 10
0
 20
0
 30
0.0
 70
     1
 40
0
 41
0
  0
VERTEX
  8
0
 10
4.19883
 20
5.42725
 30
0.0
 40
0
 41
0
  0
VERTEX
  8
0
 10
4.69883
 20
5.17725
 30
0.0
 40
0
 41
0
  0
VERTEX
  8
0
 10
4.71724
 20
5.18408
 30
0.0
 40
0
 41
0
  0
VERTEX
  8
0
 10
4.21724
 20
5.43408
 30
0.0
 40
0
 41
0
  0
VERTEX
  8
0
 10
4.19883
 20
5.42725
 30
0.0
 40
0
 41
0
  0
SEQEND
 8
0
  0
POLYLINE
  8
0
 62
     253
 66
     1
 10
0
 20
0
 30
0.0
 70
     1
 40
0
 41
0
  0
VERTEX
  8
0
 10
4.21724
 20
5.43408
 30
0.0
 40
0
 41
0
  0
VERTEX
  8
0
 10
4.71724
 20
5.18408
 30
0.0
 40
0
 41
0
  0
VERTEX
  8
0
 10
4.7354
 20
5.19185
 30
0.0
 40
0
 41
0
  0
VERTEX
  8
0
 10
4.2354
 20
5.44185
 30
0.0
 40
0
 41
0
  0
VERTEX
  8
0
 10
4.21724
 20
5.43408
 30
0.0
 40
0
 41
0
  0
SEQEND
 8
0
  0
POLYLINE
  8
0
 62
     253
 66
     1
 10
0
 20
0
 30
0.0
 70
     1
 40
0
 41
0
  0
VERTEX
  8
0
 10
4.2354
 20
5.44185
 30
0.0
 40
0
 41
0
  0
VERTEX
  8
0
 10
4.7354
 20
5.19185
 30
0.0
 40
0
 41
0
  0
VERTEX
  8
0
 10
4.75325
 20
5.20053
 30
0.0
 40
0
 41
0
  0
VERTEX
  8
0
 10
4.25325
 20
5.45053
 30
0.0
 40
0
 41
0
  0
VERTEX
  8
0
 10
4.2354
 20
5.44185
 30
0.0
 40
0
 41
0
  0
SEQEND
 8
0
  0
POLYLINE
  8
0
 62
     253
 66
     1
 10
0
 20
0
 30
0.0
 70
     1
 40
0
 41
0
  0
VERTEX
  8
0
 10
4.25325
 20
5.45053
 30
0.0
 40
0
 41
0
  0
VERTEX
  8
0
 10
4.75325
 20
5.20053
 30
0.0
 40
0
 41
0
  0
VERTEX
  8
0
 10
4.77072
 20
5.21013
 30
0.0
 40
0
 41
0
  0
VERTEX
  8
0
 10
4.27072
 20
5.46013
 30
0.0
 40
0
 41
0
  0
VERTEX
  8
0
 10
4.25325
 20
5.45053
 30
0.0
 40
0
 41
0
  0
SEQEND
 8
0
  0
POLYLINE
  8
0
 62
     253
 66
     1
 10
0
 20
0
 30
0.0
 70
     1
 40
0
 41
0
  0
VERTEX
  8
0
 10
4.27072
 20
5.46013
 30
0.0
 40
0
 41
0
  0
VERTEX
  8
0
 10
4.77072
 20
5.21013
 30
0.0
 40
0
 41
0
  0
VERTEX
  8
0
 10
4.78776
 20
5.22054
 30
0.0
 40
0
 41
0
  0
VERTEX
  8
0
 10
4.28776
 20
5.47054
 30
0.0
 40
0
 41
0
  0
VERTEX
  8
0
 10
4.27072
 20
5.46013
 30
0.0
 40
0
 41
0
  0
SEQEND
 8
0
  0
POLYLINE
  8
0
 62
     33
 66
     1
 10
0
 20
0
 30
0.0
 70
     1
 40
0
 41
0
  0
VERTEX
  8
0
 10
4.28776
 20
5.47054
 30
0.0
 40
0
 41
0
  0
VERTEX
  8
0
 10
4.78776
 20
5.22054
 30
0.0
 40
0
 41
0
  0
VERTEX
  8
0
 10
4.80431
 20
5.23178
 30
0.0
 40
0
 41
0
  0
VERTEX
  8
0
 10
4.30431
 20
5.48178
 30
0.0
 40
0
 41
0
  0
VERTEX
  8
0
 10
4.28776
 20
5.47054
 30
0.0
 40
0
 41
0
  0
SEQEND
 8
0
  0
POLYLINE
  8
0
 62
     254
 66
     1
 10
0
 20
0
 30
0.0
 70
     1
 40
0
 41
0
  0
VERTEX
  8
0
 10
4.30431
 20
5.48178
 30
0.0
 40
0
 41
0
  0
VERTEX
  8
0
 10
4.80431
 20
5.23178
 30
0.0
 40
0
 41
0
  0
VERTEX
  8
0
 10
4.82036
 20
5.24376
 30
0.0
 40
0
 41
0
  0
VERTEX
  8
0
 10
4.32036
 20
5.49376
 30
0.0
 40
0
 41
0
  0
VERTEX
  8
0
 10
4.30431
 20
5.48178
 30
0.0
 40
0
 41
0
  0
SEQEND
 8
0
  0
POLYLINE
  8
0
 62
     254
 66
     1
 10
0
 20
0
 30
0.0
 70
     1
 40
0
 41
0
  0
VERTEX
  8
0
 10
4.32036
 20
5.49376
 30
0.0
 40
0
 41
0
  0
VERTEX
  8
0
 10
4.82036
 20
5.24376
 30
0.0
 40
0
 41
0
  0
VERTEX
  8
0
 10
4.83578
 20
5.25657
 30
0.0
 40
0
 41
0
  0
VERTEX
  8
0
 10
4.33578
 20
5.50657
 30
0.0
 40
0
 41
0
  0
VERTEX
  8
0
 10
4.32036
 20
5.49376
 30
0.0
 40
0
 41
0
  0
SEQEND
 8
0
  0
POLYLINE
  8
0
 62
     254
 66
     1
 10
0
 20
0
 30
0.0
 70
     1
 40
0
 41
0
  0
VERTEX
  8
0
 10
4.33578
 20
5.50657
 30
0.0
 40
0
 41
0
  0
VERTEX
  8
0
 10
4.83578
 20
5.25657
 30
0.0
 40
0
 41
0
  0
VERTEX
  8
0
 10
4.85053
 20
5.27007
 30
0.0
 40
0
 41
0
  0
VERTEX
  8
0
 10
4.35053
 20
5.52007
 30
0.0
 40
0
 41
0
  0
VERTEX
  8
0
 10
4.33578
 20
5.50657
 30
0.0
 40
0
 41
0
  0
SEQEND
 8
0
  0
POLYLINE
  8
0
 62
     254
 66
     1
 10
0
 20
0
 30
0.0
 70
     1
 40
0
 41
0
  0
VERTEX
  8
0
 10
4.35053
 20
5.52007
 30
0.0
 40
0
 41
0
  0
VERTEX
  8
0
 10
4.85053
 20
5.27007
 30
0.0
 40
0
 41
0
  0
VERTEX
  8
0
 10
4.86453
 20
5.28429
 30
0.0
 40
0
 41
0
  0
VERTEX
  8
0
 10
4.36453
 20
5.53429
 30
0.0
 40
0
 41
0
  0
VERTEX
  8
0
 10
4.35053
 20
5.52007
 30
0.0
 40
0
 41
0
  0
SEQEND
 8
0
  0
POLYLINE
  8
0
 62
     254
 66
     1
 10
0
 20
0
 30
0.0
 70
     1
 40
0
 41
0
  0
VERTEX
  8
0
 10
4.36453
 20
5.53429
 30
0.0
 40
0
 41
0
  0
VERTEX
  8
0
 10
4.86453
 20
5.28429
 30
0.0
 40
0
 41
0
  0
VERTEX
  8
0
 10
4.87782
 20
5.29921
 30
0.0
 40
0
 41
0
  0
VERTEX
  8
0
 10
4.37782
 20
5.54921
 30
0.0
 40
0
 41
0
  0
VERTEX
  8
0
 10
4.36453
 20
5.53429
 30
0.0
 40
0
 41
0
  0
SEQEND
 8
0
  0
POLYLINE
  8
0
 62
     254
 66
     1
 10
0
 20
0
 30
0.0
 70
     1
 40
0
 41
0
  0
VERTEX
  8
0
 10
4.37782
 20
5.54921
 30
0.0
 40
0
 41
0
  0
VERTEX
  8
0
 10
4.87782
 20
5.29921
 30
0.0
 40
0
 41
0
  0
VERTEX
  8
0
 10
4.89019
 20
5.31478
 30
0.0
 40
0
 41
0
  0
VERTEX
  8
0
 10
4.39019
 20
5.56478
 30
0.0
 40
0
 41
0
  0
VERTEX
  8
0
 10
4.37782
 20
5.54921
 30
0.0
 40
0
 41
0
  0
SEQEND
 8
0
  0
POLYLINE
  8
0
 62
     254
 66
     1
 10
0
 20
0
 30
0.0
 70
     1
 40
0
 41
0
  0
VERTEX
  8
0
 10
4.39019
 20
5.56478
 30
0.0
 40
0
 41
0
  0
VERTEX
  8
0
 10
4.89019
 20
5.31478
 30
0.0
 40
0
 41
0
  0
VERTEX
  8
0
 10
4.90169
 20
5.33094
 30
0.0
 40
0
 41
0
  0
VERTEX
  8
0
 10
4.40169
 20
5.58094
 30
0.0
 40
0
 41
0
  0
VERTEX
  8
0
 10
4.39019
 20
5.56478
 30
0.0
 40
0
 41
0
  0
SEQEND
 8
0
  0
POLYLINE
  8
0
 62
     254
 66
     1
 10
0
 20
0
 30
0.0
 70
     1
 40
0
 41
0
  0
VERTEX
  8
0
 10
4.40169
 20
5.58094
 30
0.0
 40
0
 41
0
  0
VERTEX
  8
0
 10
4.90169
 20
5.33094
 30
0.0
 40
0
 41
0
  0
VERTEX
  8
0
 10
4.91228
 20
5.34771
 30
0.0
 40
0
 41
0
  0
VERTEX
  8
0
 10
4.41228
 20
5.59771
 30
0.0
 40
0
 41
0
  0
VERTEX
  8
0
 10
4.40169
 20
5.58094
 30
0.0
 40
0
 41
0
  0
SEQEND
 8
0
  0
POLYLINE
  8
0
 62
     254
 66
     1
 10
0
 20
0
 30
0.0
 70
     1
 40
0
 41
0
  0
VERTEX
  8
0
 10
4.41228
 20
5.59771
 30
0.0
 40
0
 41
0
  0
VERTEX
  8
0
 10
4.91228
 20
5.34771
 30
0.0
 40
0
 41
0
  0
VERTEX
  8
0
 10
4.92176
 20
5.36501
 30
0.0
 40
0
 41
0
  0
VERTEX
  8
0
 10
4.42176
 20
5.61501
 30
0.0
 40
0
 41
0
  0
VERTEX
  8
0
 10
4.41228
 20
5.59771
 30
0.0
 40
0
 41
0
  0
SEQEND
 8
0
  0
POLYLINE
  8
0
 62
     254
 66
     1
 10
0
 20
0
 30
0.0
 70
     1
 40
0
 41
0
  0
VERTEX
  8
0
 10
4.42176
 20
5.61501
 30
0.0
 40
0
 41
0
  0
VERTEX
  8
0
 10
4.92176
 20
5.36501
 30
0.0
 40
0
 41
0
  0
VERTEX
  8
0
 10
4.93024
 20
5.38286
 30
0.0
 40
0
 41
0
  0
VERTEX
  8
0
 10
4.43024
 20
5.63286
 30
0.0
 40
0
 41
0
  0
VERTEX
  8
0
 10
4.42176
 20
5.61501
 30
0.0
 40
0
 41
0
  0
SEQEND
 8
0
  0
POLYLINE
  8
0
 62
     254
 66
     1
 10
0
 20
0
 30
0.0
 70
     1
 40
0
 41
0
  0
VERTEX
  8
0
 10
4.43024
 20
5.63286
 30
0.0
 40
0
 41
0
  0
VERTEX
  8
0
 10
4.93024
 20
5.38286
 30
0.0
 40
0
 41
0
  0
VERTEX
  8
0
 10
4.9375
 20
5.40126
 30
0.0
 40
0
 41
0
  0
VERTEX
  8
0
 10
4.4375
 20
5.65126
 30
0.0
 40
0
 41
0
  0
VERTEX
  8
0
 10
4.43024
 20
5.63286
 30
0.0
 40
0
 41
0
  0
SEQEND
 8
0
  0
POLYLINE
  8
0
 62
     254
 66
     1
 10
0
 20
0
 30
0.0
 70
     1
 40
0
 41
0
  0
VERTEX
  8
0
 10
4.4375
 20
5.65126
 30
0.0
 40
0
 41
0
  0
VERTEX
  8
0
 10
4.9375
 20
5.40126
 30
0.0
 40
0
 41
0
  0
VERTEX
  8
0
 10
4.94363
 20
5.42008
 30
0.0
 40
0
 41
0
  0
VERTEX
  8
0
 10
4.44363
 20
5.67008
 30
0.0
 40
0
 41
0
  0
VERTEX
  8
0
 10
4.4375
 20
5.65126
 30
0.0
 40
0
 41
0
  0
SEQEND
 8
0
  0
POLYLINE
  8
0
 62
     254
 66
     1
 10
0
 20
0
 30
0.0
 70
     1
 40
0
 41
0
  0
VERTEX
  8
0
 10
4.44363
 20
5.67008
 30
0.0
 40
0
 41
0
  0
VERTEX
  8
0
 10
4.94363
 20
5.42008
 30
0.0
 40
0
 41
0
  0
VERTEX
  8
0
 10
4.94846
 20
5.43935
 30
0.0
 40
0
 41
0
  0
VERTEX
  8
0
 10
4.44846
 20
5.68935
 30
0.0
 40
0
 41
0
  0
VERTEX
  8
0
 10
4.44363
 20
5.67008
 30
0.0
 40
0
 41
0
  0
SEQEND
 8
0
  0
POLYLINE
  8
0
 62
     254
 66
     1
 10
0
 20
0
 30
0.0
 70
     1
 40
0
 41
0
  0
VERTEX
  8
0
 10
4.44846
 20
5.68935
 30
0.0
 40
0
 41
0
  0
VERTEX
  8
0
 10
4.94846
 20
5.43935
 30
0.0
 40
0
 41
0
  0
VERTEX
  8
0
 10
4.95199
 20
5.45904
 30
0.0
 40
0
 41
0
  0
VERTEX
  8
0
 10
4.45199
 20
5.70904
 30
0.0
 40
0
 41
0
  0
VERTEX
  8
0
 10
4.44846
 20
5.68935
 30
0.0
 40
0
 41
0
  0
SEQEND
 8
0
  0
POLYLINE
  8
0
 62
     254
 66
     1
 10
0
 20
0
 30
0.0
 70
     1
 40
0
 41
0
  0
VERTEX
  8
0
 10
4.45199
 20
5.70904
 30
0.0
 40
0
 41
0
  0
VERTEX
  8
0
 10
4.95199
 20
5.45904
 30
0.0
 40
0
 41
0
  0
VERTEX
  8
0
 10
4.95415
 20
5.47911
 30
0.0
 40
0
 41
0
  0
VERTEX
  8
0
 10
4.45415
 20
5.72911
 30
0.0
 40
0
 41
0
  0
VERTEX
  8
0
 10
4.45199
 20
5.70904
 30
0.0
 40
0
 41
0
  0
SEQEND
 8
0
  0
POLYLINE
  8
0
 62
     254
 66
     1
 10
0
 20
0
 30
0.0
 70
     1
 40
0
 41
0
  0
VERTEX
  8
0
 10
4.45415
 20
5.72911
 30
0.0
 40
0
 41
0
  0
VERTEX
  8
0
 10
4.95415
 20
5.47911
 30
0.0
 40
0
 41
0
  0
VERTEX
  8
0
 10
4.95486
 20
5.49951
 30
0.0
 40
0
 41
0
  0
VERTEX
  8
0
 10
4.45486
 20
5.74951
 30
0.0
 40
0
 41
0
  0
VERTEX
  8
0
 10
4.45415
 20
5.72911
 30
0.0
 40
0
 41
0
  0
SEQEND
 8
0
  0
POLYLINE
  8
0
 62
     254
 66
     1
 10
0
 20
0
 30
0.0
 70
     1
 40
0
 41
0
  0
VERTEX
  8
0
 10
4.45486
 20
5.74951
 30
0.0
 40
0
 41
0
  0
VERTEX
  8
0
 10
4.95486
 20
5.49951
 30
0.0
 40
0
 41
0
  0
VERTEX
  8
0
 10
4.95404
 20
5.52029
 30
0.0
 40
0
 41
0
  0
VERTEX
  8
0
 10
4.45404
 20
5.77029
 30
0.0
 40
0
 41
0
  0
VERTEX
  8
0
 10
4.45486
 20
5.74951
 30
0.0
 40
0
 41
0
  0
SEQEND
 8
0
  0
POLYLINE
  8
0
 62
     254
 66
     1
 10
0
 20
0
 30
0.0
 70
     1
 40
0
 41
0
  0
VERTEX
  8
0
 10
4.45404
 20
5.77029
 30
0.0
 40
0
 41
0
  0
VERTEX
  8
0
 10
4.95404
 20
5.52029
 30
0.0
 40
0
 41
0
  0
VERTEX
  8
0
 10
4.95171
 20
5.54135
 30
0.0
 40
0
 41
0
  0
VERTEX
  8
0
 10
4.45171
 20
5.79135
 30
0.0
 40
0
 41
0
  0
VERTEX
  8
0
 10
4.45404
 20
5.77029
 30
0.0
 40
0
 41
0
  0
SEQEND
 8
0
  0
POLYLINE
  8
0
 62
     254
 66
     1
 10
0
 20
0
 30
0.0
 70
     1
 40
0
 41
0
  0
VERTEX
  8
0
 10
4.45171
 20
5.79135
 30
0.0
 40
0
 41
0
  0
VERTEX
  8
0
 10
4.95171
 20
5.54135
 30
0.0
 40
0
 41
0
  0
VERTEX
  8
0
 10
4.94775
 20
5.56267
 30
0.0
 40
0
 41
0
  0
VERTEX
  8
0
 10
4.44775
 20
5.81267
 30
0.0
 40
0
 41
0
  0
VERTEX
  8
0
 10
4.45171
 20
5.79135
 30
0.0
 40
0
 41
0
  0
SEQEND
 8
0
  0
POLYLINE
  8
0
 62
     254
 66
     1
 10
0
 20
0
 30
0.0
 70
     1
 40
0
 41
0
  0
VERTEX
  8
0
 10
4.44775
 20
5.81267
 30
0.0
 40
0
 41
0
  0
VERTEX
  8
0
 10
4.94775
 20
5.56267
 30
0.0
 40
0
 41
0
  0
VERTEX
  8
0
 10
4.94211
 20
5.58421
 30
0.0
 40
0
 41
0
  0
VERTEX
  8
0
 10
4.44211
 20
5.83421
 30
0.0
 40
0
 41
0
  0
VERTEX
  8
0
 10
4.44775
 20
5.81267
 30
0.0
 40
0
 41
0
  0
SEQEND
 8
0
  0
POLYLINE
  8
0
 62
     254
 66
     1
 10
0
 20
0
 30
0.0
 70
     1
 40
0
 41
0
  0
VERTEX
  8
0
 10
4.44211
 20
5.83421
 30
0.0
 40
0
 41
0
  0
VERTEX
  8
0
 10
4.94211
 20
5.58421
 30
0.0
 40
0
 41
0
  0
VERTEX
  8
0
 10
4.93479
 20
5.60596
 30
0.0
 40
0
 41
0
  0
VERTEX
  8
0
 10
4.43479
 20
5.85596
 30
0.0
 40
0
 41
0
  0
VERTEX
  8
0
 10
4.44211
 20
5.83421
 30
0.0
 40
0
 41
0
  0
SEQEND
 8
0
  0
POLYLINE
  8
0
 62
     254
 66
     1
 10
0
 20
0
 30
0.0
 70
     1
 40
0
 41
0
  0
VERTEX
  8
0
 10
4.43479
 20
5.85596
 30
0.0
 40
0
 41
0
  0
VERTEX
  8
0
 10
4.93479
 20
5.60596
 30
0.0
 40
0
 41
0
  0
VERTEX
  8
0
 10
4.92562
 20
5.62793
 30
0.0
 40
0
 41
0
  0
VERTEX
  8
0
 10
4.42562
 20
5.87793
 30
0.0
 40
0
 41
0
  0
VERTEX
  8
0
 10
4.43479
 20
5.85596
 30
0.0
 40
0
 41
0
  0
SEQEND
 8
0
  0
POLYLINE
  8
0
 62
     254
 66
     1
 10
0
 20
0
 30
0.0
 70
     1
 40
0
 41
0
  0
VERTEX
  8
0
 10
4.42562
 20
5.87793
 30
0.0
 40
0
 41
0
  0
VERTEX
  8
0
 10
4.92562
 20
5.62793
 30
0.0
 40
0
 41
0
  0
VERTEX
  8
0
 10
4.91461
 20
5.65007
 30
0.0
 40
0
 41
0
  0
VERTEX
  8
0
 10
4.41461
 20
5.90007
 30
0.0
 40
0
 41
0
  0
VERTEX
  8
0
 10
4.42562
 20
5.87793
 30
0.0
 40
0
 41
0
  0
SEQEND
 8
0
  0
POLYLINE
  8
0
 62
     0
 66
     1
 10
0
 20
0
 30
0.0
 70
     1
 40
1.00006
 41
1.00006
  0
VERTEX
  8
0
 10
4.14274
 20
5.41271
 30
0.0
 40
0.0138897
 41
0.0138897
  0
VERTEX
  8
0
 10
4.64274
 20
5.16271
 30
0.0
 40
0.0138897
 41
0.0138897
  0
VERTEX
  8
0
 10
4.66151
 20
5.16656
 30
0.0
 40
0.0138897
 41
0.0138897
  0
VERTEX
  8
0
 10
4.68024
 20
5.17139
 30
0.0
 40
0.0138897
 41
0.0138897
  0
VERTEX
  8
0
 10
4.69883
 20
5.17725
 30
0.0
 40
0.0138897
 41
0.0138897
  0
VERTEX
  8
0
 10
4.71724
 20
5.18408
 30
0.0
 40
0.0138897
 41
0.0138897
  0
VERTEX
  8
0
 10
4.7354
 20
5.19185
 30
0.0
 40
0.0138897
 41
0.0138897
  0
VERTEX
  8
0
 10
4.75325
 20
5.20053
 30
0.0
 40
0.0138897
 41
0.0138897
  0
VERTEX
  8
0
 10
4.77072
 20
5.21013
 30
0.0
 40
0.0138897
 41
0.0138897
  0
VERTEX
  8
0
 10
4.78776
 20
5.22054
 30
0.0
 40
0.0138897
 41
0.0138897
  0
VERTEX
  8
0
 10
4.80431
 20
5.23178
 30
0.0
 40
0.0138897
 41
0.0138897
  0
VERTEX
  8
0
 10
4.82036
 20
5.24376
 30
0.0
 40
0.0138897
 41
0.0138897
  0
VERTEX
  8
0
 10
4.83578
 20
5.25657
 30
0.0
 40
0.0138897
 41
0.0138897
  0
VERTEX
  8
0
 10
4.85053
 20
5.27007
 30
0.0
 40
0.0138897
 41
0.0138897
  0
VERTEX
  8
0
 10
4.86453
 20
5.28429
 30
0.0
 40
0.0138897
 41
0.0138897
  0
VERTEX
  8
0
 10
4.87782
 20
5.29921
 30
0.0
 40
0.0138897
 41
0.0138897
  0
VERTEX
  8
0
 10
4.89019
 20
5.31478
 30
0.0
 40
0.0138897
 41
0.0138897
  0
VERTEX
  8
0
 10
4.90169
 20
5.33094
 30
0.0
 40
0.0138897
 41
0.0138897
  0
VERTEX
  8
0
 10
4.91228
 20
5.34771
 30
0.0
 40
0.0138897
 41
0.0138897
  0
VERTEX
  8
0
 10
4.92176
 20
5.36501
 30
0.0
 40
0.0138897
 41
0.0138897
  0
VERTEX
  8
0
 10
4.93024
 20
5.38286
 30
0.0
 40
0.0138897
 41
0.0138897
  0
VERTEX
  8
0
 10
4.9375
 20
5.40126
 30
0.0
 40
0.0138897
 41
0.0138897
  0
VERTEX
  8
0
 10
4.94363
 20
5.42008
 30
0.0
 40
0.0138897
 41
0.0138897
  0
VERTEX
  8
0
 10
4.94846
 20
5.43935
 30
0.0
 40
0.0138897
 41
0.0138897
  0
VERTEX
  8
0
 10
4.95199
 20
5.45904
 30
0.0
 40
0.0138897
 41
0.0138897
  0
VERTEX
  8
0
 10
4.95415
 20
5.47911
 30
0.0
 40
0.0138897
 41
0.0138897
  0
VERTEX
  8
0
 10
4.95486
 20
5.49951
 30
0.0
 40
0.0138897
 41
0.0138897
  0
VERTEX
  8
0
 10
4.95404
 20
5.52029
 30
0.0
 40
0.0138897
 41
0.0138897
  0
VERTEX
  8
0
 10
4.95171
 20
5.54135
 30
0.0
 40
0.0138897
 41
0.0138897
  0
VERTEX
  8
0
 10
4.94775
 20
5.56267
 30
0.0
 40
0.0138897
 41
0.0138897
  0
VERTEX
  8
0
 10
4.94211
 20
5.58421
 30
0.0
 40
0.0138897
 41
0.0138897
  0
VERTEX
  8
0
 10
4.93479
 20
5.60596
 30
0.0
 40
0.0138897
 41
0.0138897
  0
VERTEX
  8
0
 10
4.92562
 20
5.62793
 30
0.0
 40
0.0138897
 41
0.0138897
  0
VERTEX
  8
0
 10
4.91461
 20
5.65007
 30
0.0
 40
0.0138897
 41
0.0138897
  0
VERTEX
  8
0
 10
4.41461
 20
5.90007
 30
0.0
 40
0.0138897
 41
0.0138897
  0
VERTEX
  8
0
 10
4.42562
 20
5.87793
 30
0.0
 40
0.0138897
 41
0.0138897
  0
VERTEX
  8
0
 10
4.43479
 20
5.85596
 30
0.0
 40
0.0138897
 41
0.0138897
  0
VERTEX
  8
0
 10
4.44211
 20
5.83421
 30
0.0
 40
0.0138897
 41
0.0138897
  0
VERTEX
  8
0
 10
4.44775
 20
5.81267
 30
0.0
 40
0.0138897
 41
0.0138897
  0
VERTEX
  8
0
 10
4.45171
 20
5.79135
 30
0.0
 40
0.0138897
 41
0.0138897
  0
VERTEX
  8
0
 10
4.45404
 20
5.77029
 30
0.0
 40
0.0138897
 41
0.0138897
  0
VERTEX
  8
0
 10
4.45486
 20
5.74951
 30
0.0
 40
0.0138897
 41
0.0138897
  0
VERTEX
  8
0
 10
4.45415
 20
5.72911
 30
0.0
 40
0.0138897
 41
0.0138897
  0
VERTEX
  8
0
 10
4.45199
 20
5.70904
 30
0.0
 40
0.0138897
 41
0.0138897
  0
VERTEX
  8
0
 10
4.44846
 20
5.68935
 30
0.0
 40
0.0138897
 41
0.0138897
  0
VERTEX
  8
0
 10
4.44363
 20
5.67008
 30
0.0
 40
0.0138897
 41
0.0138897
  0
VERTEX
  8
0
 10
4.4375
 20
5.65126
 30
0.0
 40
0.0138897
 41
0.0138897
  0
VERTEX
  8
0
 10
4.43024
 20
5.63286
 30
0.0
 40
0.0138897
 41
0.0138897
  0
VERTEX
  8
0
 10
4.42176
 20
5.61501
 30
0.0
 40
0.0138897
 41
0.0138897
  0
VERTEX
  8
0
 10
4.41228
 20
5.59771
 30
0.0
 40
0.0138897
 41
0.0138897
  0
VERTEX
  8
0
 10
4.40169
 20
5.58094
 30
0.0
 40
0.0138897
 41
0.0138897
  0
VERTEX
  8
0
 10
4.39019
 20
5.56478
 30
0.0
 40
0.0138897
 41
0.0138897
  0
VERTEX
  8
0
 10
4.37782
 20
5.54921
 30
0.0
 40
0.0138897
 41
0.0138897
  0
VERTEX
  8
0
 10
4.36453
 20
5.53429
 30
0.0
 40
0.0138897
 41
0.0138897
  0
VERTEX
  8
0
 10
4.35053
 20
5.52007
 30
0.0
 40
0.0138897
 41
0.0138897
  0
VERTEX
  8
0
 10
4.33578
 20
5.50657
 30
0.0
 40
0.0138897
 41
0.0138897
  0
VERTEX
  8
0
 10
4.32036
 20
5.49376
 30
0.0
 40
0.0138897
 41
0.0138897
  0
VERTEX
  8
0
 10
4.30431
 20
5.48178
 30
0.0
 40
0.0138897
 41
0.0138897
  0
VERTEX
  8
0
 10
4.28776
 20
5.47054
 30
0.0
 40
0.0138897
 41
0.0138897
  0
VERTEX
  8
0
 10
4.27072
 20
5.46013
 30
0.0
 40
0.0138897
 41
0.0138897
  0
VERTEX
  8
0
 10
4.25325
 20
5.45053
 30
0.0
 40
0.0138897
 41
0.0138897
  0
VERTEX
  8
0
 10
4.2354
 20
5.44185
 30
0.0
 40
0.0138897
 41
0.0138897
  0
VERTEX
  8
0
 10
4.21724
 20
5.43408
 30
0.0
 40
0.0138897
 41
0.0138897
  0
VERTEX
  8
0
 10
4.19883
 20
5.42725
 30
0.0
 40
0.0138897
 41
0.0138897
  0
VERTEX
  8
0
 10
4.18024
 20
5.42139
 30
0.0
 40
0.0138897
 41
0.0138897
  0
VERTEX
  8
0
 10
4.16151
 20
5.41656
 30
0.0
 40
0.0138897
 41
0.0138897
  0
VERTEX
  8
0
 10
4.14274
 20
5.41271
 30
0.0
 40
0.0138897
 41
0.0138897
  0
SEQEND
 8
0
  0
POLYLINE
  8
0
 62
     8
 66
     1
 10
0
 20
0
 30
0.0
 70
     1
 40
0
 41
0
  0
VERTEX
  8
0
 10
4.41461
 20
5.90007
 30
0.0
 40
0
 41
0
  0
VERTEX
  8
0
 10
4.91461
 20
5.65007
 30
0.0
 40
0
 41
0
  0
VERTEX
  8
0
 10
5.09256
 20
5.65007
 30
0.0
 40
0
 41
0
  0
VERTEX
  8
0
 10
4.59256
 20
5.90007
 30
0.0
 40
0
 41
0
  0
VERTEX
  8
0
 10
4.41461
 20
5.90007
 30
0.0
 40
0
 41
0
  0
SEQEND
 8
0
  0
POLYLINE
  8
0
 62
     0
 66
     1
 10
0
 20
0
 30
0.0
 70
     1
 40
1.00006
 41
1.00006
  0
VERTEX
  8
0
 10
4.41461
 20
5.90007
 30
0.0
 40
0.0138897
 41
0.0138897
  0
VERTEX
  8
0
 10
4.91461
 20
5.65007
 30
0.0
 40
0.0138897
 41
0.0138897
  0
VERTEX
  8
0
 10
5.09256
 20
5.65007
 30
0.0
 40
0.0138897
 41
0.0138897
  0
VERTEX
  8
0
 10
4.59256
 20
5.90007
 30
0.0
 40
0.0138897
 41
0.0138897
  0
VERTEX
  8
0
 10
4.41461
 20
5.90007
 30
0.0
 40
0.0138897
 41
0.0138897
  0
SEQEND
 8
0
  0
POLYLINE
  8
0
 62
     254
 66
     1
 10
0
 20
0
 30
0.0
 70
     1
 40
0
 41
0
  0
VERTEX
  8
0
 10
4.59256
 20
5.90007
 30
0.0
 40
0
 41
0
  0
VERTEX
  8
0
 10
5.09256
 20
5.65007
 30
0.0
 40
0
 41
0
  0
VERTEX
  8
0
 10
5.09256
 20
6.08192
 30
0.0
 40
0
 41
0
  0
VERTEX
  8
0
 10
4.59256
 20
6.33192
 30
0.0
 40
0
 41
0
  0
VERTEX
  8
0
 10
4.59256
 20
5.90007
 30
0.0
 40
0
 41
0
  0
SEQEND
 8
0
  0
POLYLINE
  8
0
 62
     0
 66
     1
 10
0
 20
0
 30
0.0
 70
     1
 40
1.00006
 41
1.00006
  0
VERTEX
  8
0
 10
4.59256
 20
5.90007
 30
0.0
 40
0.0138897
 41
0.0138897
  0
VERTEX
  8
0
 10
5.09256
 20
5.65007
 30
0.0
 40
0.0138897
 41
0.0138897
  0
VERTEX
  8
0
 10
5.09256
 20
6.08192
 30
0.0
 40
0.0138897
 41
0.0138897
  0
VERTEX
  8
0
 10
4.59256
 20
6.33192
 30
0.0
 40
0.0138897
 41
0.0138897
  0
VERTEX
  8
0
 10
4.59256
 20
5.90007
 30
0.0
 40
0.0138897
 41
0.0138897
  0
SEQEND
 8
0
  0
POLYLINE
  8
0
 62
     253
 66
     1
 10
0
 20
0
 30
0.0
 70
     1
 40
0
 41
0
  0
VERTEX
  8
0
 10
1.89367
 20
3.29004
 30
0.0
 40
0
 41
0
  0
VERTEX
  8
0
 10
1.89367
 20
2.88271
 30
0.0
 40
0
 41
0
  0
VERTEX
  8
0
 10
2.29378
 20
2.88271
 30
0.0
 40
0
 41
0
  0
VERTEX
  8
0
 10
2.29378
 20
3.21951
 30
0.0
 40
0
 41
0
  0
VERTEX
  8
0
 10
2.42725
 20
3.21951
 30
0.0
 40
0
 41
0
  0
VERTEX
  8
0
 10
2.42725
 20
3.37804
 30
0.0
 40
0
 41
0
  0
VERTEX
  8
0
 10
2.4585
 20
3.37983
 30
0.0
 40
0
 41
0
  0
VERTEX
  8
0
 10
2.55176
 20
3.39387
 30
0.0
 40
0
 41
0
  0
VERTEX
  8
0
 10
2.65597
 20
3.42583
 30
0.0
 40
0
 41
0
  0
VERTEX
  8
0
 10
2.74018
 20
3.47364
 30
0.0
 40
0
 41
0
  0
VERTEX
  8
0
 10
2.80496
 20
3.53678
 30
0.0
 40
0
 41
0
  0
VERTEX
  8
0
 10
2.85064
 20
3.61507
 30
0.0
 40
0
 41
0
  0
VERTEX
  8
0
 10
2.87776
 20
3.70811
 30
0.0
 40
0
 41
0
  0
VERTEX
  8
0
 10
2.88672
 20
3.81549
 30
0.0
 40
0
 41
0
  0
VERTEX
  8
0
 10
2.88206
 20
3.90679
 30
0.0
 40
0
 41
0
  0
VERTEX
  8
0
 10
2.87799
 20
3.93685
 30
0.0
 40
0
 41
0
  0
VERTEX
  8
0
 10
2.97954
 20
3.93685
 30
0.0
 40
0
 41
0
  0
VERTEX
  8
0
 10
2.99397
 20
4.00222
 30
0.0
 40
0
 41
0
  0
VERTEX
  8
0
 10
3.04676
 20
4.19613
 30
0.0
 40
0
 41
0
  0
VERTEX
  8
0
 10
3.12858
 20
4.42253
 30
0.0
 40
0
 41
0
  0
VERTEX
  8
0
 10
3.22889
 20
4.61919
 30
0.0
 40
0
 41
0
  0
VERTEX
  8
0
 10
3.35157
 20
4.78901
 30
0.0
 40
0
 41
0
  0
VERTEX
  8
0
 10
3.50043
 20
4.93506
 30
0.0
 40
0
 41
0
  0
VERTEX
  8
0
 10
3.67936
 20
5.06022
 30
0.0
 40
0
 41
0
  0
VERTEX
  8
0
 10
3.89214
 20
5.16764
 30
0.0
 40
0
 41
0
  0
VERTEX
  8
0
 10
4.07915
 20
5.23996
 30
0.0
 40
0
 41
0
  0
VERTEX
  8
0
 10
4.14274
 20
5.26014
 30
0.0
 40
0
 41
0
  0
VERTEX
  8
0
 10
4.14274
 20
5.41271
 30
0.0
 40
0
 41
0
  0
VERTEX
  8
0
 10
4.16168
 20
5.41607
 30
0.0
 40
0
 41
0
  0
VERTEX
  8
0
 10
4.21724
 20
5.43414
 30
0.0
 40
0
 41
0
  0
VERTEX
  8
0
 10
4.28776
 20
5.47054
 30
0.0
 40
0
 41
0
  0
VERTEX
  8
0
 10
4.35053
 20
5.52013
 30
0.0
 40
0
 41
0
  0
VERTEX
  8
0
 10
4.40169
 20
5.58094
 30
0.0
 40
0
 41
0
  0
VERTEX
  8
0
 10
4.4375
 20
5.65126
 30
0.0
 40
0
 41
0
  0
VERTEX
  8
0
 10
4.4541
 20
5.72911
 30
0.0
 40
0
 41
0
  0
VERTEX
  8
0
 10
4.44775
 20
5.81267
 30
0.0
 40
0
 41
0
  0
VERTEX
  8
0
 10
4.42557
 20
5.87972
 30
0.0
 40
0
 41
0
  0
VERTEX
  8
0
 10
4.41461
 20
5.90007
 30
0.0
 40
0
 41
0
  0
VERTEX
  8
0
 10
4.59256
 20
5.90007
 30
0.0
 40
0
 41
0
  0
VERTEX
  8
0
 10
4.59256
 20
6.33192
 30
0.0
 40
0
 41
0
  0
VERTEX
  8
0
 10
4.24962
 20
6.30647
 30
0.0
 40
0
 41
0
  0
VERTEX
  8
0
 10
1.89367
 20
3.29004
 30
0.0
 40
0
 41
0
  0
SEQEND
 8
0
  0
POLYLINE
  8
0
 62
     0
 66
     1
 10
0
 20
0
 30
0.0
 70
     1
 40
1.00006
 41
1.00006
  0
VERTEX
  8
0
 10
1.89367
 20
3.29004
 30
0.0
 40
0.0138897
 41
0.0138897
  0
VERTEX
  8
0
 10
1.89367
 20
2.88271
 30
0.0
 40
0.0138897
 41
0.0138897
  0
VERTEX
  8
0
 10
2.29378
 20
2.88271
 30
0.0
 40
0.0138897
 41
0.0138897
  0
VERTEX
  8
0
 10
2.29378
 20
3.21951
 30
0.0
 40
0.0138897
 41
0.0138897
  0
VERTEX
  8
0
 10
2.42725
 20
3.21951
 30
0.0
 40
0.0138897
 41
0.0138897
  0
VERTEX
  8
0
 10
2.42725
 20
3.37804
 30
0.0
 40
0.0138897
 41
0.0138897
  0
VERTEX
  8
0
 10
2.4585
 20
3.37983
 30
0.0
 40
0.0138897
 41
0.0138897
  0
VERTEX
  8
0
 10
2.55176
 20
3.39387
 30
0.0
 40
0.0138897
 41
0.0138897
  0
VERTEX
  8
0
 10
2.65597
 20
3.42583
 30
0.0
 40
0.0138897
 41
0.0138897
  0
VERTEX
  8
0
 10
2.74018
 20
3.47364
 30
0.0
 40
0.0138897
 41
0.0138897
  0
VERTEX
  8
0
 10
2.80496
 20
3.53678
 30
0.0
 40
0.0138897
 41
0.0138897
  0
VERTEX
  8
0
 10
2.85064
 20
3.61507
 30
0.0
 40
0.0138897
 41
0.0138897
  0
VERTEX
  8
0
 10
2.87776
 20
3.70811
 30
0.0
 40
0.0138897
 41
0.0138897
  0
VERTEX
  8
0
 10
2.88672
 20
3.81549
 30
0.0
 40
0.0138897
 41
0.0138897
  0
VERTEX
  8
0
 10
2.88206
 20
3.90679
 30
0.0
 40
0.0138897
 41
0.0138897
  0
VERTEX
  8
0
 10
2.87799
 20
3.93685
 30
0.0
 40
0.0138897
 41
0.0138897
  0
VERTEX
  8
0
 10
2.97954
 20
3.93685
 30
0.0
 40
0.0138897
 41
0.0138897
  0
VERTEX
  8
0
 10
2.99397
 20
4.00222
 30
0.0
 40
0.0138897
 41
0.0138897
  0
VERTEX
  8
0
 10
3.04676
 20
4.19613
 30
0.0
 40
0.0138897
 41
0.0138897
  0
VERTEX
  8
0
 10
3.12858
 20
4.42253
 30
0.0
 40
0.0138897
 41
0.0138897
  0
VERTEX
  8
0
 10
3.22889
 20
4.61919
 30
0.0
 40
0.0138897
 41
0.0138897
  0
VERTEX
  8
0
 10
3.35157
 20
4.78901
 30
0.0
 40
0.0138897
 41
0.0138897
  0
VERTEX
  8
0
 10
3.50043
 20
4.93506
 30
0.0
 40
0.0138897
 41
0.0138897
  0
VERTEX
  8
0
 10
3.67936
 20
5.06022
 30
0.0
 40
0.0138897
 41
0.0138897
  0
VERTEX
  8
0
 10
3.89214
 20
5.16764
 30
0.0
 40
0.0138897
 41
0.0138897
  0
VERTEX
  8
0
 10
4.07915
 20
5.23996
 30
0.0
 40
0.0138897
 41
0.0138897
  0
VERTEX
  8
0
 10
4.14274
 20
5.26014
 30
0.0
 40
0.0138897
 41
0.0138897
  0
VERTEX
  8
0
 10
4.14274
 20
5.41271
 30
0.0
 40
0.0138897
 41
0.0138897
  0
VERTEX
  8
0
 10
4.16168
 20
5.41607
 30
0.0
 40
0.0138897
 41
0.0138897
  0
VERTEX
  8
0
 10
4.21724
 20
5.43414
 30
0.0
 40
0.0138897
 41
0.0138897
  0
VERTEX
  8
0
 10
4.28776
 20
5.47054
 30
0.0
 40
0.0138897
 41
0.0138897
  0
VERTEX
  8
0
 10
4.35053
 20
5.52013
 30
0.0
 40
0.0138897
 41
0.0138897
  0
VERTEX
  8
0
 10
4.40169
 20
5.58094
 30
0.0
 40
0.0138897
 41
0.0138897
  0
VERTEX
  8
0
 10
4.4375
 20
5.65126
 30
0.0
 40
0.0138897
 41
0.0138897
  0
VERTEX
  8
0
 10
4.4541
 20
5.72911
 30
0.0
 40
0.0138897
 41
0.0138897
  0
VERTEX
  8
0
 10
4.44775
 20
5.81267
 30
0.0
 40
0.0138897
 41
0.0138897
  0
VERTEX
  8
0
 10
4.42557
 20
5.87972
 30
0.0
 40
0.0138897
 41
0.0138897
  0
VERTEX
  8
0
 10
4.41461
 20
5.90007
 30
0.0
 40
0.0138897
 41
0.0138897
  0
VERTEX
  8
0
 10
4.59256
 20
5.90007
 30
0.0
 40
0.0138897
 41
0.0138897
  0
VERTEX
  8
0
 10
4.59256
 20
6.33192
 30
0.0
 40
0.0138897
 41
0.0138897
  0
VERTEX
  8
0
 10
4.24962
 20
6.30647
 30
0.0
 40
0.0138897
 41
0.0138897
  0
VERTEX
  8
0
 10
1.89367
 20
3.29004
 30
0.0
 40
0.0138897
 41
0.0138897
  0
SEQEND
 8
0
  0
ENDSEC
  0
EOF
