  0
SECTION
  2
HEADER
  9
$ACADVER
  1
AC1009
  9
$EXTMIN
 10
0.0
 20
0.0
 30
0.0
  9
$EXTMAX
 10
1000.0
 20
1000.0
 30
0.0
  9
$FILLMODE
 70
 0
  9
$SPLFRAME
 70
 1
  0
ENDSEC
  0
SECTION
  2
TABLES
  0
TABLE
  2
LAYER
 70
1
  0
LAYER
  2
0
 70
     0
 62
     7
  6
CONTINUOUS
  0
ENDTAB
  0
ENDSEC
  0
SECTION
  2
ENTITIES
  0
POLYLINE
  8
0
 62
     8
 66
     1
 10
0
 20
0
 30
0.0
 70
     1
 40
0
 41
0
  0
VERTEX
  8
0
 10
1.98301
 20
0.697537
 30
0.0
 40
0
 41
0
  0
VERTEX
  8
0
 10
2.48301
 20
0.447537
 30
0.0
 40
0
 41
0
  0
VERTEX
  8
0
 10
2.94661
 20
0.447537
 30
0.0
 40
0
 41
0
  0
VERTEX
  8
0
 10
2.44661
 20
0.697537
 30
0.0
 40
0
 41
0
  0
VERTEX
  8
0
 10
1.98301
 20
0.697537
 30
0.0
 40
0
 41
0
  0
SEQEND
 8
0
  0
POLYLINE
  8
0
 62
     0
 66
     1
 10
0
 20
0
 30
0.0
 70
     1
 40
1.00006
 41
1.00006
  0
VERTEX
  8
0
 10
1.98301
 20
0.697537
 30
0.0
 40
0.0138897
 41
0.0138897
  0
VERTEX
  8
0
 10
2.48301
 20
0.447537
 30
0.0
 40
0.0138897
 41
0.0138897
  0
VERTEX
  8
0
 10
2.94661
 20
0.447537
 30
0.0
 40
0.0138897
 41
0.0138897
  0
VERTEX
  8
0
 10
2.44661
 20
0.697537
 30
0.0
 40
0.0138897
 41
0.0138897
  0
VERTEX
  8
0
 10
1.98301
 20
0.697537
 30
0.0
 40
0.0138897
 41
0.0138897
  0
SEQEND
 8
0
  0
POLYLINE
  8
0
 62
     254
 66
     1
 10
0
 20
0
 30
0.0
 70
     1
 40
0
 41
0
  0
VERTEX
  8
0
 10
2.44661
 20
0.697537
 30
0.0
 40
0
 41
0
  0
VERTEX
  8
0
 10
2.94661
 20
0.447537
 30
0.0
 40
0
 41
0
  0
VERTEX
  8
0
 10
2.94661
 20
0.695258
 30
0.0
 40
0
 41
0
  0
VERTEX
  8
0
 10
2.44661
 20
0.945258
 30
0.0
 40
0
 41
0
  0
VERTEX
  8
0
 10
2.44661
 20
0.697537
 30
0.0
 40
0
 41
0
  0
SEQEND
 8
0
  0
POLYLINE
  8
0
 62
     0
 66
     1
 10
0
 20
0
 30
0.0
 70
     1
 40
1.00006
 41
1.00006
  0
VERTEX
  8
0
 10
2.44661
 20
0.697537
 30
0.0
 40
0.0138897
 41
0.0138897
  0
VERTEX
  8
0
 10
2.94661
 20
0.447537
 30
0.0
 40
0.0138897
 41
0.0138897
  0
VERTEX
  8
0
 10
2.94661
 20
0.695258
 30
0.0
 40
0.0138897
 41
0.0138897
  0
VERTEX
  8
0
 10
2.44661
 20
0.945258
 30
0.0
 40
0.0138897
 41
0.0138897
  0
VERTEX
  8
0
 10
2.44661
 20
0.697537
 30
0.0
 40
0.0138897
 41
0.0138897
  0
SEQEND
 8
0
  0
POLYLINE
  8
0
 62
     8
 66
     1
 10
0
 20
0
 30
0.0
 70
     1
 40
0
 41
0
  0
VERTEX
  8
0
 10
2.44661
 20
0.945258
 30
0.0
 40
0
 41
0
  0
VERTEX
  8
0
 10
2.94661
 20
0.695258
 30
0.0
 40
0
 41
0
  0
VERTEX
  8
0
 10
3.06104
 20
0.695258
 30
0.0
 40
0
 41
0
  0
VERTEX
  8
0
 10
2.56104
 20
0.945258
 30
0.0
 40
0
 41
0
  0
VERTEX
  8
0
 10
2.44661
 20
0.945258
 30
0.0
 40
0
 41
0
  0
SEQEND
 8
0
  0
POLYLINE
  8
0
 62
     0
 66
     1
 10
0
 20
0
 30
0.0
 70
     1
 40
1.00006
 41
1.00006
  0
VERTEX
  8
0
 10
2.44661
 20
0.945258
 30
0.0
 40
0.0138897
 41
0.0138897
  0
VERTEX
  8
0
 10
2.94661
 20
0.695258
 30
0.0
 40
0.0138897
 41
0.0138897
  0
VERTEX
  8
0
 10
3.06104
 20
0.695258
 30
0.0
 40
0.0138897
 41
0.0138897
  0
VERTEX
  8
0
 10
2.56104
 20
0.945258
 30
0.0
 40
0.0138897
 41
0.0138897
  0
VERTEX
  8
0
 10
2.44661
 20
0.945258
 30
0.0
 40
0.0138897
 41
0.0138897
  0
SEQEND
 8
0
  0
POLYLINE
  8
0
 62
     254
 66
     1
 10
0
 20
0
 30
0.0
 70
     1
 40
0
 41
0
  0
VERTEX
  8
0
 10
2.56104
 20
0.945258
 30
0.0
 40
0
 41
0
  0
VERTEX
  8
0
 10
3.06104
 20
0.695258
 30
0.0
 40
0
 41
0
  0
VERTEX
  8
0
 10
3.05946
 20
0.718967
 30
0.0
 40
0
 41
0
  0
VERTEX
  8
0
 10
2.55946
 20
0.968967
 30
0.0
 40
0
 41
0
  0
VERTEX
  8
0
 10
2.56104
 20
0.945258
 30
0.0
 40
0
 41
0
  0
SEQEND
 8
0
  0
POLYLINE
  8
0
 62
     254
 66
     1
 10
0
 20
0
 30
0.0
 70
     1
 40
0
 41
0
  0
VERTEX
  8
0
 10
2.55946
 20
0.968967
 30
0.0
 40
0
 41
0
  0
VERTEX
  8
0
 10
3.05946
 20
0.718967
 30
0.0
 40
0
 41
0
  0
VERTEX
  8
0
 10
3.0586
 20
0.742025
 30
0.0
 40
0
 41
0
  0
VERTEX
  8
0
 10
2.5586
 20
0.991971
 30
0.0
 40
0
 41
0
  0
VERTEX
  8
0
 10
2.55946
 20
0.968967
 30
0.0
 40
0
 41
0
  0
SEQEND
 8
0
  0
POLYLINE
  8
0
 62
     254
 66
     1
 10
0
 20
0
 30
0.0
 70
     1
 40
0
 41
0
  0
VERTEX
  8
0
 10
2.5586
 20
0.991971
 30
0.0
 40
0
 41
0
  0
VERTEX
  8
0
 10
3.0586
 20
0.742025
 30
0.0
 40
0
 41
0
  0
VERTEX
  8
0
 10
3.05843
 20
0.764432
 30
0.0
 40
0
 41
0
  0
VERTEX
  8
0
 10
2.55843
 20
1.01438
 30
0.0
 40
0
 41
0
  0
VERTEX
  8
0
 10
2.5586
 20
0.991971
 30
0.0
 40
0
 41
0
  0
SEQEND
 8
0
  0
POLYLINE
  8
0
 62
     254
 66
     1
 10
0
 20
0
 30
0.0
 70
     1
 40
0
 41
0
  0
VERTEX
  8
0
 10
2.55843
 20
1.01438
 30
0.0
 40
0
 41
0
  0
VERTEX
  8
0
 10
3.05843
 20
0.764432
 30
0.0
 40
0
 41
0
  0
VERTEX
  8
0
 10
3.05908
 20
0.786133
 30
0.0
 40
0
 41
0
  0
VERTEX
  8
0
 10
2.55908
 20
1.03613
 30
0.0
 40
0
 41
0
  0
VERTEX
  8
0
 10
2.55843
 20
1.01438
 30
0.0
 40
0
 41
0
  0
SEQEND
 8
0
  0
POLYLINE
  8
0
 62
     254
 66
     1
 10
0
 20
0
 30
0.0
 70
     1
 40
0
 41
0
  0
VERTEX
  8
0
 10
2.55908
 20
1.03613
 30
0.0
 40
0
 41
0
  0
VERTEX
  8
0
 10
3.05908
 20
0.786133
 30
0.0
 40
0
 41
0
  0
VERTEX
  8
0
 10
3.06044
 20
0.807292
 30
0.0
 40
0
 41
0
  0
VERTEX
  8
0
 10
2.56044
 20
1.05724
 30
0.0
 40
0
 41
0
  0
VERTEX
  8
0
 10
2.55908
 20
1.03613
 30
0.0
 40
0
 41
0
  0
SEQEND
 8
0
  0
POLYLINE
  8
0
 62
     254
 66
     1
 10
0
 20
0
 30
0.0
 70
     1
 40
0
 41
0
  0
VERTEX
  8
0
 10
2.56044
 20
1.05724
 30
0.0
 40
0
 41
0
  0
VERTEX
  8
0
 10
3.06044
 20
0.807292
 30
0.0
 40
0
 41
0
  0
VERTEX
  8
0
 10
3.0625
 20
0.827746
 30
0.0
 40
0
 41
0
  0
VERTEX
  8
0
 10
2.5625
 20
1.07775
 30
0.0
 40
0
 41
0
  0
VERTEX
  8
0
 10
2.56044
 20
1.05724
 30
0.0
 40
0
 41
0
  0
SEQEND
 8
0
  0
POLYLINE
  8
0
 62
     254
 66
     1
 10
0
 20
0
 30
0.0
 70
     1
 40
0
 41
0
  0
VERTEX
  8
0
 10
2.5625
 20
1.07775
 30
0.0
 40
0
 41
0
  0
VERTEX
  8
0
 10
3.0625
 20
0.827746
 30
0.0
 40
0
 41
0
  0
VERTEX
  8
0
 10
3.06538
 20
0.847547
 30
0.0
 40
0
 41
0
  0
VERTEX
  8
0
 10
2.56538
 20
1.09755
 30
0.0
 40
0
 41
0
  0
VERTEX
  8
0
 10
2.5625
 20
1.07775
 30
0.0
 40
0
 41
0
  0
SEQEND
 8
0
  0
POLYLINE
  8
0
 62
     254
 66
     1
 10
0
 20
0
 30
0.0
 70
     1
 40
0
 41
0
  0
VERTEX
  8
0
 10
2.56538
 20
1.09755
 30
0.0
 40
0
 41
0
  0
VERTEX
  8
0
 10
3.06538
 20
0.847547
 30
0.0
 40
0
 41
0
  0
VERTEX
  8
0
 10
3.06896
 20
0.866754
 30
0.0
 40
0
 41
0
  0
VERTEX
  8
0
 10
2.56896
 20
1.1167
 30
0.0
 40
0
 41
0
  0
VERTEX
  8
0
 10
2.56538
 20
1.09755
 30
0.0
 40
0
 41
0
  0
SEQEND
 8
0
  0
POLYLINE
  8
0
 62
     254
 66
     1
 10
0
 20
0
 30
0.0
 70
     1
 40
0
 41
0
  0
VERTEX
  8
0
 10
2.56896
 20
1.1167
 30
0.0
 40
0
 41
0
  0
VERTEX
  8
0
 10
3.06896
 20
0.866754
 30
0.0
 40
0
 41
0
  0
VERTEX
  8
0
 10
3.07329
 20
0.885254
 30
0.0
 40
0
 41
0
  0
VERTEX
  8
0
 10
2.57329
 20
1.13525
 30
0.0
 40
0
 41
0
  0
VERTEX
  8
0
 10
2.56896
 20
1.1167
 30
0.0
 40
0
 41
0
  0
SEQEND
 8
0
  0
POLYLINE
  8
0
 62
     254
 66
     1
 10
0
 20
0
 30
0.0
 70
     1
 40
0
 41
0
  0
VERTEX
  8
0
 10
2.57329
 20
1.13525
 30
0.0
 40
0
 41
0
  0
VERTEX
  8
0
 10
3.07329
 20
0.885254
 30
0.0
 40
0
 41
0
  0
VERTEX
  8
0
 10
3.0784
 20
0.903157
 30
0.0
 40
0
 41
0
  0
VERTEX
  8
0
 10
2.5784
 20
1.15316
 30
0.0
 40
0
 41
0
  0
VERTEX
  8
0
 10
2.57329
 20
1.13525
 30
0.0
 40
0
 41
0
  0
SEQEND
 8
0
  0
POLYLINE
  8
0
 62
     254
 66
     1
 10
0
 20
0
 30
0.0
 70
     1
 40
0
 41
0
  0
VERTEX
  8
0
 10
2.5784
 20
1.15316
 30
0.0
 40
0
 41
0
  0
VERTEX
  8
0
 10
3.0784
 20
0.903157
 30
0.0
 40
0
 41
0
  0
VERTEX
  8
0
 10
3.08421
 20
0.92041
 30
0.0
 40
0
 41
0
  0
VERTEX
  8
0
 10
2.58421
 20
1.17041
 30
0.0
 40
0
 41
0
  0
VERTEX
  8
0
 10
2.5784
 20
1.15316
 30
0.0
 40
0
 41
0
  0
SEQEND
 8
0
  0
POLYLINE
  8
0
 62
     254
 66
     1
 10
0
 20
0
 30
0.0
 70
     1
 40
0
 41
0
  0
VERTEX
  8
0
 10
2.58421
 20
1.17041
 30
0.0
 40
0
 41
0
  0
VERTEX
  8
0
 10
3.08421
 20
0.92041
 30
0.0
 40
0
 41
0
  0
VERTEX
  8
0
 10
3.09076
 20
0.936957
 30
0.0
 40
0
 41
0
  0
VERTEX
  8
0
 10
2.59076
 20
1.18696
 30
0.0
 40
0
 41
0
  0
VERTEX
  8
0
 10
2.58421
 20
1.17041
 30
0.0
 40
0
 41
0
  0
SEQEND
 8
0
  0
POLYLINE
  8
0
 62
     254
 66
     1
 10
0
 20
0
 30
0.0
 70
     1
 40
0
 41
0
  0
VERTEX
  8
0
 10
2.59076
 20
1.18696
 30
0.0
 40
0
 41
0
  0
VERTEX
  8
0
 10
3.09076
 20
0.936957
 30
0.0
 40
0
 41
0
  0
VERTEX
  8
0
 10
3.0981
 20
0.952908
 30
0.0
 40
0
 41
0
  0
VERTEX
  8
0
 10
2.5981
 20
1.20291
 30
0.0
 40
0
 41
0
  0
VERTEX
  8
0
 10
2.59076
 20
1.18696
 30
0.0
 40
0
 41
0
  0
SEQEND
 8
0
  0
POLYLINE
  8
0
 62
     254
 66
     1
 10
0
 20
0
 30
0.0
 70
     1
 40
0
 41
0
  0
VERTEX
  8
0
 10
2.5981
 20
1.20291
 30
0.0
 40
0
 41
0
  0
VERTEX
  8
0
 10
3.0981
 20
0.952908
 30
0.0
 40
0
 41
0
  0
VERTEX
  8
0
 10
3.10613
 20
0.968261
 30
0.0
 40
0
 41
0
  0
VERTEX
  8
0
 10
2.60613
 20
1.21821
 30
0.0
 40
0
 41
0
  0
VERTEX
  8
0
 10
2.5981
 20
1.20291
 30
0.0
 40
0
 41
0
  0
SEQEND
 8
0
  0
POLYLINE
  8
0
 62
     254
 66
     1
 10
0
 20
0
 30
0.0
 70
     1
 40
0
 41
0
  0
VERTEX
  8
0
 10
2.60613
 20
1.21821
 30
0.0
 40
0
 41
0
  0
VERTEX
  8
0
 10
3.10613
 20
0.968261
 30
0.0
 40
0
 41
0
  0
VERTEX
  8
0
 10
3.1149
 20
0.98291
 30
0.0
 40
0
 41
0
  0
VERTEX
  8
0
 10
2.6149
 20
1.23291
 30
0.0
 40
0
 41
0
  0
VERTEX
  8
0
 10
2.60613
 20
1.21821
 30
0.0
 40
0
 41
0
  0
SEQEND
 8
0
  0
POLYLINE
  8
0
 62
     254
 66
     1
 10
0
 20
0
 30
0.0
 70
     1
 40
0
 41
0
  0
VERTEX
  8
0
 10
2.6149
 20
1.23291
 30
0.0
 40
0
 41
0
  0
VERTEX
  8
0
 10
3.1149
 20
0.98291
 30
0.0
 40
0
 41
0
  0
VERTEX
  8
0
 10
3.12446
 20
0.996907
 30
0.0
 40
0
 41
0
  0
VERTEX
  8
0
 10
2.62446
 20
1.24691
 30
0.0
 40
0
 41
0
  0
VERTEX
  8
0
 10
2.6149
 20
1.23291
 30
0.0
 40
0
 41
0
  0
SEQEND
 8
0
  0
POLYLINE
  8
0
 62
     254
 66
     1
 10
0
 20
0
 30
0.0
 70
     1
 40
0
 41
0
  0
VERTEX
  8
0
 10
2.62446
 20
1.24691
 30
0.0
 40
0
 41
0
  0
VERTEX
  8
0
 10
3.12446
 20
0.996907
 30
0.0
 40
0
 41
0
  0
VERTEX
  8
0
 10
3.13476
 20
1.01031
 30
0.0
 40
0
 41
0
  0
VERTEX
  8
0
 10
2.63476
 20
1.26025
 30
0.0
 40
0
 41
0
  0
VERTEX
  8
0
 10
2.62446
 20
1.24691
 30
0.0
 40
0
 41
0
  0
SEQEND
 8
0
  0
POLYLINE
  8
0
 62
     254
 66
     1
 10
0
 20
0
 30
0.0
 70
     1
 40
0
 41
0
  0
VERTEX
  8
0
 10
2.63476
 20
1.26025
 30
0.0
 40
0
 41
0
  0
VERTEX
  8
0
 10
3.13476
 20
1.01031
 30
0.0
 40
0
 41
0
  0
VERTEX
  8
0
 10
3.14578
 20
1.023
 30
0.0
 40
0
 41
0
  0
VERTEX
  8
0
 10
2.64578
 20
1.273
 30
0.0
 40
0
 41
0
  0
VERTEX
  8
0
 10
2.63476
 20
1.26025
 30
0.0
 40
0
 41
0
  0
SEQEND
 8
0
  0
POLYLINE
  8
0
 62
     254
 66
     1
 10
0
 20
0
 30
0.0
 70
     1
 40
0
 41
0
  0
VERTEX
  8
0
 10
2.64578
 20
1.273
 30
0.0
 40
0
 41
0
  0
VERTEX
  8
0
 10
3.14578
 20
1.023
 30
0.0
 40
0
 41
0
  0
VERTEX
  8
0
 10
3.15756
 20
1.0351
 30
0.0
 40
0
 41
0
  0
VERTEX
  8
0
 10
2.65756
 20
1.2851
 30
0.0
 40
0
 41
0
  0
VERTEX
  8
0
 10
2.64578
 20
1.273
 30
0.0
 40
0
 41
0
  0
SEQEND
 8
0
  0
POLYLINE
  8
0
 62
     254
 66
     1
 10
0
 20
0
 30
0.0
 70
     1
 40
0
 41
0
  0
VERTEX
  8
0
 10
2.65756
 20
1.2851
 30
0.0
 40
0
 41
0
  0
VERTEX
  8
0
 10
3.15756
 20
1.0351
 30
0.0
 40
0
 41
0
  0
VERTEX
  8
0
 10
3.17008
 20
1.04655
 30
0.0
 40
0
 41
0
  0
VERTEX
  8
0
 10
2.67008
 20
1.29655
 30
0.0
 40
0
 41
0
  0
VERTEX
  8
0
 10
2.65756
 20
1.2851
 30
0.0
 40
0
 41
0
  0
SEQEND
 8
0
  0
POLYLINE
  8
0
 62
     254
 66
     1
 10
0
 20
0
 30
0.0
 70
     1
 40
0
 41
0
  0
VERTEX
  8
0
 10
2.67008
 20
1.29655
 30
0.0
 40
0
 41
0
  0
VERTEX
  8
0
 10
3.17008
 20
1.04655
 30
0.0
 40
0
 41
0
  0
VERTEX
  8
0
 10
3.18338
 20
1.05729
 30
0.0
 40
0
 41
0
  0
VERTEX
  8
0
 10
2.68338
 20
1.30729
 30
0.0
 40
0
 41
0
  0
VERTEX
  8
0
 10
2.67008
 20
1.29655
 30
0.0
 40
0
 41
0
  0
SEQEND
 8
0
  0
POLYLINE
  8
0
 62
     33
 66
     1
 10
0
 20
0
 30
0.0
 70
     1
 40
0
 41
0
  0
VERTEX
  8
0
 10
2.68338
 20
1.30729
 30
0.0
 40
0
 41
0
  0
VERTEX
  8
0
 10
3.18338
 20
1.05729
 30
0.0
 40
0
 41
0
  0
VERTEX
  8
0
 10
3.19738
 20
1.06744
 30
0.0
 40
0
 41
0
  0
VERTEX
  8
0
 10
2.69737
 20
1.31744
 30
0.0
 40
0
 41
0
  0
VERTEX
  8
0
 10
2.68338
 20
1.30729
 30
0.0
 40
0
 41
0
  0
SEQEND
 8
0
  0
POLYLINE
  8
0
 62
     33
 66
     1
 10
0
 20
0
 30
0.0
 70
     1
 40
0
 41
0
  0
VERTEX
  8
0
 10
2.69737
 20
1.31744
 30
0.0
 40
0
 41
0
  0
VERTEX
  8
0
 10
3.19738
 20
1.06744
 30
0.0
 40
0
 41
0
  0
VERTEX
  8
0
 10
3.21212
 20
1.07699
 30
0.0
 40
0
 41
0
  0
VERTEX
  8
0
 10
2.71212
 20
1.32693
 30
0.0
 40
0
 41
0
  0
VERTEX
  8
0
 10
2.69737
 20
1.31744
 30
0.0
 40
0
 41
0
  0
SEQEND
 8
0
  0
POLYLINE
  8
0
 62
     253
 66
     1
 10
0
 20
0
 30
0.0
 70
     1
 40
0
 41
0
  0
VERTEX
  8
0
 10
2.71212
 20
1.32693
 30
0.0
 40
0
 41
0
  0
VERTEX
  8
0
 10
3.21212
 20
1.07699
 30
0.0
 40
0
 41
0
  0
VERTEX
  8
0
 10
3.22765
 20
1.08583
 30
0.0
 40
0
 41
0
  0
VERTEX
  8
0
 10
2.72765
 20
1.33583
 30
0.0
 40
0
 41
0
  0
VERTEX
  8
0
 10
2.71212
 20
1.32693
 30
0.0
 40
0
 41
0
  0
SEQEND
 8
0
  0
POLYLINE
  8
0
 62
     253
 66
     1
 10
0
 20
0
 30
0.0
 70
     1
 40
0
 41
0
  0
VERTEX
  8
0
 10
2.72765
 20
1.33583
 30
0.0
 40
0
 41
0
  0
VERTEX
  8
0
 10
3.22765
 20
1.08583
 30
0.0
 40
0
 41
0
  0
VERTEX
  8
0
 10
3.24388
 20
1.09402
 30
0.0
 40
0
 41
0
  0
VERTEX
  8
0
 10
2.74388
 20
1.34402
 30
0.0
 40
0
 41
0
  0
VERTEX
  8
0
 10
2.72765
 20
1.33583
 30
0.0
 40
0
 41
0
  0
SEQEND
 8
0
  0
POLYLINE
  8
0
 62
     253
 66
     1
 10
0
 20
0
 30
0.0
 70
     1
 40
0
 41
0
  0
VERTEX
  8
0
 10
2.74388
 20
1.34402
 30
0.0
 40
0
 41
0
  0
VERTEX
  8
0
 10
3.24388
 20
1.09402
 30
0.0
 40
0
 41
0
  0
VERTEX
  8
0
 10
3.26085
 20
1.10162
 30
0.0
 40
0
 41
0
  0
VERTEX
  8
0
 10
2.76085
 20
1.35162
 30
0.0
 40
0
 41
0
  0
VERTEX
  8
0
 10
2.74388
 20
1.34402
 30
0.0
 40
0
 41
0
  0
SEQEND
 8
0
  0
POLYLINE
  8
0
 62
     253
 66
     1
 10
0
 20
0
 30
0.0
 70
     1
 40
0
 41
0
  0
VERTEX
  8
0
 10
2.76085
 20
1.35162
 30
0.0
 40
0
 41
0
  0
VERTEX
  8
0
 10
3.26085
 20
1.10162
 30
0.0
 40
0
 41
0
  0
VERTEX
  8
0
 10
3.2786
 20
1.10851
 30
0.0
 40
0
 41
0
  0
VERTEX
  8
0
 10
2.7786
 20
1.35851
 30
0.0
 40
0
 41
0
  0
VERTEX
  8
0
 10
2.76085
 20
1.35162
 30
0.0
 40
0
 41
0
  0
SEQEND
 8
0
  0
POLYLINE
  8
0
 62
     9
 66
     1
 10
0
 20
0
 30
0.0
 70
     1
 40
0
 41
0
  0
VERTEX
  8
0
 10
2.7786
 20
1.35851
 30
0.0
 40
0
 41
0
  0
VERTEX
  8
0
 10
3.2786
 20
1.10851
 30
0.0
 40
0
 41
0
  0
VERTEX
  8
0
 10
3.29704
 20
1.1148
 30
0.0
 40
0
 41
0
  0
VERTEX
  8
0
 10
2.79704
 20
1.3648
 30
0.0
 40
0
 41
0
  0
VERTEX
  8
0
 10
2.7786
 20
1.35851
 30
0.0
 40
0
 41
0
  0
SEQEND
 8
0
  0
POLYLINE
  8
0
 62
     9
 66
     1
 10
0
 20
0
 30
0.0
 70
     1
 40
0
 41
0
  0
VERTEX
  8
0
 10
2.79704
 20
1.3648
 30
0.0
 40
0
 41
0
  0
VERTEX
  8
0
 10
3.29704
 20
1.1148
 30
0.0
 40
0
 41
0
  0
VERTEX
  8
0
 10
3.31629
 20
1.12044
 30
0.0
 40
0
 41
0
  0
VERTEX
  8
0
 10
2.81629
 20
1.37044
 30
0.0
 40
0
 41
0
  0
VERTEX
  8
0
 10
2.79704
 20
1.3648
 30
0.0
 40
0
 41
0
  0
SEQEND
 8
0
  0
POLYLINE
  8
0
 62
     252
 66
     1
 10
0
 20
0
 30
0.0
 70
     1
 40
0
 41
0
  0
VERTEX
  8
0
 10
2.81629
 20
1.37044
 30
0.0
 40
0
 41
0
  0
VERTEX
  8
0
 10
3.31629
 20
1.12044
 30
0.0
 40
0
 41
0
  0
VERTEX
  8
0
 10
3.33626
 20
1.12538
 30
0.0
 40
0
 41
0
  0
VERTEX
  8
0
 10
2.83626
 20
1.37538
 30
0.0
 40
0
 41
0
  0
VERTEX
  8
0
 10
2.81629
 20
1.37044
 30
0.0
 40
0
 41
0
  0
SEQEND
 8
0
  0
POLYLINE
  8
0
 62
     252
 66
     1
 10
0
 20
0
 30
0.0
 70
     1
 40
0
 41
0
  0
VERTEX
  8
0
 10
2.83626
 20
1.37538
 30
0.0
 40
0
 41
0
  0
VERTEX
  8
0
 10
3.33626
 20
1.12538
 30
0.0
 40
0
 41
0
  0
VERTEX
  8
0
 10
3.35693
 20
1.12972
 30
0.0
 40
0
 41
0
  0
VERTEX
  8
0
 10
2.85693
 20
1.37972
 30
0.0
 40
0
 41
0
  0
VERTEX
  8
0
 10
2.83626
 20
1.37538
 30
0.0
 40
0
 41
0
  0
SEQEND
 8
0
  0
POLYLINE
  8
0
 62
     252
 66
     1
 10
0
 20
0
 30
0.0
 70
     1
 40
0
 41
0
  0
VERTEX
  8
0
 10
2.85693
 20
1.37972
 30
0.0
 40
0
 41
0
  0
VERTEX
  8
0
 10
3.35693
 20
1.12972
 30
0.0
 40
0
 41
0
  0
VERTEX
  8
0
 10
3.37842
 20
1.13346
 30
0.0
 40
0
 41
0
  0
VERTEX
  8
0
 10
2.87842
 20
1.38341
 30
0.0
 40
0
 41
0
  0
VERTEX
  8
0
 10
2.85693
 20
1.37972
 30
0.0
 40
0
 41
0
  0
SEQEND
 8
0
  0
POLYLINE
  8
0
 62
     0
 66
     1
 10
0
 20
0
 30
0.0
 70
     1
 40
1.00006
 41
1.00006
  0
VERTEX
  8
0
 10
2.56104
 20
0.945258
 30
0.0
 40
0.0138897
 41
0.0138897
  0
VERTEX
  8
0
 10
3.06104
 20
0.695258
 30
0.0
 40
0.0138897
 41
0.0138897
  0
VERTEX
  8
0
 10
3.05946
 20
0.718967
 30
0.0
 40
0.0138897
 41
0.0138897
  0
VERTEX
  8
0
 10
3.0586
 20
0.742025
 30
0.0
 40
0.0138897
 41
0.0138897
  0
VERTEX
  8
0
 10
3.05843
 20
0.764432
 30
0.0
 40
0.0138897
 41
0.0138897
  0
VERTEX
  8
0
 10
3.05908
 20
0.786133
 30
0.0
 40
0.0138897
 41
0.0138897
  0
VERTEX
  8
0
 10
3.06044
 20
0.807292
 30
0.0
 40
0.0138897
 41
0.0138897
  0
VERTEX
  8
0
 10
3.0625
 20
0.827746
 30
0.0
 40
0.0138897
 41
0.0138897
  0
VERTEX
  8
0
 10
3.06538
 20
0.847547
 30
0.0
 40
0.0138897
 41
0.0138897
  0
VERTEX
  8
0
 10
3.06896
 20
0.866754
 30
0.0
 40
0.0138897
 41
0.0138897
  0
VERTEX
  8
0
 10
3.07329
 20
0.885254
 30
0.0
 40
0.0138897
 41
0.0138897
  0
VERTEX
  8
0
 10
3.0784
 20
0.903157
 30
0.0
 40
0.0138897
 41
0.0138897
  0
VERTEX
  8
0
 10
3.08421
 20
0.92041
 30
0.0
 40
0.0138897
 41
0.0138897
  0
VERTEX
  8
0
 10
3.09076
 20
0.936957
 30
0.0
 40
0.0138897
 41
0.0138897
  0
VERTEX
  8
0
 10
3.0981
 20
0.952908
 30
0.0
 40
0.0138897
 41
0.0138897
  0
VERTEX
  8
0
 10
3.10613
 20
0.968261
 30
0.0
 40
0.0138897
 41
0.0138897
  0
VERTEX
  8
0
 10
3.1149
 20
0.98291
 30
0.0
 40
0.0138897
 41
0.0138897
  0
VERTEX
  8
0
 10
3.12446
 20
0.996907
 30
0.0
 40
0.0138897
 41
0.0138897
  0
VERTEX
  8
0
 10
3.13476
 20
1.01031
 30
0.0
 40
0.0138897
 41
0.0138897
  0
VERTEX
  8
0
 10
3.14578
 20
1.023
 30
0.0
 40
0.0138897
 41
0.0138897
  0
VERTEX
  8
0
 10
3.15756
 20
1.0351
 30
0.0
 40
0.0138897
 41
0.0138897
  0
VERTEX
  8
0
 10
3.17008
 20
1.04655
 30
0.0
 40
0.0138897
 41
0.0138897
  0
VERTEX
  8
0
 10
3.18338
 20
1.05729
 30
0.0
 40
0.0138897
 41
0.0138897
  0
VERTEX
  8
0
 10
3.19738
 20
1.06744
 30
0.0
 40
0.0138897
 41
0.0138897
  0
VERTEX
  8
0
 10
3.21212
 20
1.07699
 30
0.0
 40
0.0138897
 41
0.0138897
  0
VERTEX
  8
0
 10
3.22765
 20
1.08583
 30
0.0
 40
0.0138897
 41
0.0138897
  0
VERTEX
  8
0
 10
3.24388
 20
1.09402
 30
0.0
 40
0.0138897
 41
0.0138897
  0
VERTEX
  8
0
 10
3.26085
 20
1.10162
 30
0.0
 40
0.0138897
 41
0.0138897
  0
VERTEX
  8
0
 10
3.2786
 20
1.10851
 30
0.0
 40
0.0138897
 41
0.0138897
  0
VERTEX
  8
0
 10
3.29704
 20
1.1148
 30
0.0
 40
0.0138897
 41
0.0138897
  0
VERTEX
  8
0
 10
3.31629
 20
1.12044
 30
0.0
 40
0.0138897
 41
0.0138897
  0
VERTEX
  8
0
 10
3.33626
 20
1.12538
 30
0.0
 40
0.0138897
 41
0.0138897
  0
VERTEX
  8
0
 10
3.35693
 20
1.12972
 30
0.0
 40
0.0138897
 41
0.0138897
  0
VERTEX
  8
0
 10
3.37842
 20
1.13346
 30
0.0
 40
0.0138897
 41
0.0138897
  0
VERTEX
  8
0
 10
2.87842
 20
1.38341
 30
0.0
 40
0.0138897
 41
0.0138897
  0
VERTEX
  8
0
 10
2.85693
 20
1.37972
 30
0.0
 40
0.0138897
 41
0.0138897
  0
VERTEX
  8
0
 10
2.83626
 20
1.37538
 30
0.0
 40
0.0138897
 41
0.0138897
  0
VERTEX
  8
0
 10
2.81629
 20
1.37044
 30
0.0
 40
0.0138897
 41
0.0138897
  0
VERTEX
  8
0
 10
2.79704
 20
1.3648
 30
0.0
 40
0.0138897
 41
0.0138897
  0
VERTEX
  8
0
 10
2.7786
 20
1.35851
 30
0.0
 40
0.0138897
 41
0.0138897
  0
VERTEX
  8
0
 10
2.76085
 20
1.35162
 30
0.0
 40
0.0138897
 41
0.0138897
  0
VERTEX
  8
0
 10
2.74388
 20
1.34402
 30
0.0
 40
0.0138897
 41
0.0138897
  0
VERTEX
  8
0
 10
2.72765
 20
1.33583
 30
0.0
 40
0.0138897
 41
0.0138897
  0
VERTEX
  8
0
 10
2.71212
 20
1.32693
 30
0.0
 40
0.0138897
 41
0.0138897
  0
VERTEX
  8
0
 10
2.69737
 20
1.31744
 30
0.0
 40
0.0138897
 41
0.0138897
  0
VERTEX
  8
0
 10
2.68338
 20
1.30729
 30
0.0
 40
0.0138897
 41
0.0138897
  0
VERTEX
  8
0
 10
2.67008
 20
1.29655
 30
0.0
 40
0.0138897
 41
0.0138897
  0
VERTEX
  8
0
 10
2.65756
 20
1.2851
 30
0.0
 40
0.0138897
 41
0.0138897
  0
VERTEX
  8
0
 10
2.64578
 20
1.273
 30
0.0
 40
0.0138897
 41
0.0138897
  0
VERTEX
  8
0
 10
2.63476
 20
1.26025
 30
0.0
 40
0.0138897
 41
0.0138897
  0
VERTEX
  8
0
 10
2.62446
 20
1.24691
 30
0.0
 40
0.0138897
 41
0.0138897
  0
VERTEX
  8
0
 10
2.6149
 20
1.23291
 30
0.0
 40
0.0138897
 41
0.0138897
  0
VERTEX
  8
0
 10
2.60613
 20
1.21821
 30
0.0
 40
0.0138897
 41
0.0138897
  0
VERTEX
  8
0
 10
2.5981
 20
1.20291
 30
0.0
 40
0.0138897
 41
0.0138897
  0
VERTEX
  8
0
 10
2.59076
 20
1.18696
 30
0.0
 40
0.0138897
 41
0.0138897
  0
VERTEX
  8
0
 10
2.58421
 20
1.17041
 30
0.0
 40
0.0138897
 41
0.0138897
  0
VERTEX
  8
0
 10
2.5784
 20
1.15316
 30
0.0
 40
0.0138897
 41
0.0138897
  0
VERTEX
  8
0
 10
2.57329
 20
1.13525
 30
0.0
 40
0.0138897
 41
0.0138897
  0
VERTEX
  8
0
 10
2.56896
 20
1.1167
 30
0.0
 40
0.0138897
 41
0.0138897
  0
VERTEX
  8
0
 10
2.56538
 20
1.09755
 30
0.0
 40
0.0138897
 41
0.0138897
  0
VERTEX
  8
0
 10
2.5625
 20
1.07775
 30
0.0
 40
0.0138897
 41
0.0138897
  0
VERTEX
  8
0
 10
2.56044
 20
1.05724
 30
0.0
 40
0.0138897
 41
0.0138897
  0
VERTEX
  8
0
 10
2.55908
 20
1.03613
 30
0.0
 40
0.0138897
 41
0.0138897
  0
VERTEX
  8
0
 10
2.55843
 20
1.01438
 30
0.0
 40
0.0138897
 41
0.0138897
  0
VERTEX
  8
0
 10
2.5586
 20
0.991971
 30
0.0
 40
0.0138897
 41
0.0138897
  0
VERTEX
  8
0
 10
2.55946
 20
0.968967
 30
0.0
 40
0.0138897
 41
0.0138897
  0
VERTEX
  8
0
 10
2.56104
 20
0.945258
 30
0.0
 40
0.0138897
 41
0.0138897
  0
SEQEND
 8
0
  0
POLYLINE
  8
0
 62
     254
 66
     1
 10
0
 20
0
 30
0.0
 70
     1
 40
0
 41
0
  0
VERTEX
  8
0
 10
2.87842
 20
1.38341
 30
0.0
 40
0
 41
0
  0
VERTEX
  8
0
 10
3.37842
 20
1.13346
 30
0.0
 40
0
 41
0
  0
VERTEX
  8
0
 10
3.37842
 20
1.43832
 30
0.0
 40
0
 41
0
  0
VERTEX
  8
0
 10
2.87842
 20
1.68832
 30
0.0
 40
0
 41
0
  0
VERTEX
  8
0
 10
2.87842
 20
1.38341
 30
0.0
 40
0
 41
0
  0
SEQEND
 8
0
  0
POLYLINE
  8
0
 62
     0
 66
     1
 10
0
 20
0
 30
0.0
 70
     1
 40
1.00006
 41
1.00006
  0
VERTEX
  8
0
 10
2.87842
 20
1.38341
 30
0.0
 40
0.0138897
 41
0.0138897
  0
VERTEX
  8
0
 10
3.37842
 20
1.13346
 30
0.0
 40
0.0138897
 41
0.0138897
  0
VERTEX
  8
0
 10
3.37842
 20
1.43832
 30
0.0
 40
0.0138897
 41
0.0138897
  0
VERTEX
  8
0
 10
2.87842
 20
1.68832
 30
0.0
 40
0.0138897
 41
0.0138897
  0
VERTEX
  8
0
 10
2.87842
 20
1.38341
 30
0.0
 40
0.0138897
 41
0.0138897
  0
SEQEND
 8
0
  0
POLYLINE
  8
0
 62
     253
 66
     1
 10
0
 20
0
 30
0.0
 70
     1
 40
0
 41
0
  0
VERTEX
  8
0
 10
2.87842
 20
1.68832
 30
0.0
 40
0
 41
0
  0
VERTEX
  8
0
 10
3.37842
 20
1.43832
 30
0.0
 40
0
 41
0
  0
VERTEX
  8
0
 10
3.42215
 20
1.4541
 30
0.0
 40
0
 41
0
  0
VERTEX
  8
0
 10
2.92215
 20
1.7041
 30
0.0
 40
0
 41
0
  0
VERTEX
  8
0
 10
2.87842
 20
1.68832
 30
0.0
 40
0
 41
0
  0
SEQEND
 8
0
  0
POLYLINE
  8
0
 62
     253
 66
     1
 10
0
 20
0
 30
0.0
 70
     1
 40
0
 41
0
  0
VERTEX
  8
0
 10
2.92215
 20
1.7041
 30
0.0
 40
0
 41
0
  0
VERTEX
  8
0
 10
3.42215
 20
1.4541
 30
0.0
 40
0
 41
0
  0
VERTEX
  8
0
 10
3.46403
 20
1.47097
 30
0.0
 40
0
 41
0
  0
VERTEX
  8
0
 10
2.96403
 20
1.72097
 30
0.0
 40
0
 41
0
  0
VERTEX
  8
0
 10
2.92215
 20
1.7041
 30
0.0
 40
0
 41
0
  0
SEQEND
 8
0
  0
POLYLINE
  8
0
 62
     253
 66
     1
 10
0
 20
0
 30
0.0
 70
     1
 40
0
 41
0
  0
VERTEX
  8
0
 10
2.96403
 20
1.72097
 30
0.0
 40
0
 41
0
  0
VERTEX
  8
0
 10
3.46403
 20
1.47097
 30
0.0
 40
0
 41
0
  0
VERTEX
  8
0
 10
3.50412
 20
1.48887
 30
0.0
 40
0
 41
0
  0
VERTEX
  8
0
 10
3.00412
 20
1.73882
 30
0.0
 40
0
 41
0
  0
VERTEX
  8
0
 10
2.96403
 20
1.72097
 30
0.0
 40
0
 41
0
  0
SEQEND
 8
0
  0
POLYLINE
  8
0
 62
     253
 66
     1
 10
0
 20
0
 30
0.0
 70
     1
 40
0
 41
0
  0
VERTEX
  8
0
 10
3.00412
 20
1.73882
 30
0.0
 40
0
 41
0
  0
VERTEX
  8
0
 10
3.50412
 20
1.48887
 30
0.0
 40
0
 41
0
  0
VERTEX
  8
0
 10
3.54232
 20
1.50776
 30
0.0
 40
0
 41
0
  0
VERTEX
  8
0
 10
3.04232
 20
1.75776
 30
0.0
 40
0
 41
0
  0
VERTEX
  8
0
 10
3.00412
 20
1.73882
 30
0.0
 40
0
 41
0
  0
SEQEND
 8
0
  0
POLYLINE
  8
0
 62
     253
 66
     1
 10
0
 20
0
 30
0.0
 70
     1
 40
0
 41
0
  0
VERTEX
  8
0
 10
3.04232
 20
1.75776
 30
0.0
 40
0
 41
0
  0
VERTEX
  8
0
 10
3.54232
 20
1.50776
 30
0.0
 40
0
 41
0
  0
VERTEX
  8
0
 10
3.57872
 20
1.52772
 30
0.0
 40
0
 41
0
  0
VERTEX
  8
0
 10
3.07872
 20
1.77772
 30
0.0
 40
0
 41
0
  0
VERTEX
  8
0
 10
3.04232
 20
1.75776
 30
0.0
 40
0
 41
0
  0
SEQEND
 8
0
  0
POLYLINE
  8
0
 62
     253
 66
     1
 10
0
 20
0
 30
0.0
 70
     1
 40
0
 41
0
  0
VERTEX
  8
0
 10
3.07872
 20
1.77772
 30
0.0
 40
0
 41
0
  0
VERTEX
  8
0
 10
3.57872
 20
1.52772
 30
0.0
 40
0
 41
0
  0
VERTEX
  8
0
 10
3.61328
 20
1.54878
 30
0.0
 40
0
 41
0
  0
VERTEX
  8
0
 10
3.11328
 20
1.79878
 30
0.0
 40
0
 41
0
  0
VERTEX
  8
0
 10
3.07872
 20
1.77772
 30
0.0
 40
0
 41
0
  0
SEQEND
 8
0
  0
POLYLINE
  8
0
 62
     33
 66
     1
 10
0
 20
0
 30
0.0
 70
     1
 40
0
 41
0
  0
VERTEX
  8
0
 10
3.11328
 20
1.79878
 30
0.0
 40
0
 41
0
  0
VERTEX
  8
0
 10
3.61328
 20
1.54878
 30
0.0
 40
0
 41
0
  0
VERTEX
  8
0
 10
3.646
 20
1.57081
 30
0.0
 40
0
 41
0
  0
VERTEX
  8
0
 10
3.146
 20
1.82081
 30
0.0
 40
0
 41
0
  0
VERTEX
  8
0
 10
3.11328
 20
1.79878
 30
0.0
 40
0
 41
0
  0
SEQEND
 8
0
  0
POLYLINE
  8
0
 62
     254
 66
     1
 10
0
 20
0
 30
0.0
 70
     1
 40
0
 41
0
  0
VERTEX
  8
0
 10
3.146
 20
1.82081
 30
0.0
 40
0
 41
0
  0
VERTEX
  8
0
 10
3.646
 20
1.57081
 30
0.0
 40
0
 41
0
  0
VERTEX
  8
0
 10
3.67686
 20
1.59392
 30
0.0
 40
0
 41
0
  0
VERTEX
  8
0
 10
3.17686
 20
1.84386
 30
0.0
 40
0
 41
0
  0
VERTEX
  8
0
 10
3.146
 20
1.82081
 30
0.0
 40
0
 41
0
  0
SEQEND
 8
0
  0
POLYLINE
  8
0
 62
     254
 66
     1
 10
0
 20
0
 30
0.0
 70
     1
 40
0
 41
0
  0
VERTEX
  8
0
 10
3.17686
 20
1.84386
 30
0.0
 40
0
 41
0
  0
VERTEX
  8
0
 10
3.67686
 20
1.59392
 30
0.0
 40
0
 41
0
  0
VERTEX
  8
0
 10
3.70594
 20
1.61806
 30
0.0
 40
0
 41
0
  0
VERTEX
  8
0
 10
3.20594
 20
1.868
 30
0.0
 40
0
 41
0
  0
VERTEX
  8
0
 10
3.17686
 20
1.84386
 30
0.0
 40
0
 41
0
  0
SEQEND
 8
0
  0
POLYLINE
  8
0
 62
     254
 66
     1
 10
0
 20
0
 30
0.0
 70
     1
 40
0
 41
0
  0
VERTEX
  8
0
 10
3.20594
 20
1.868
 30
0.0
 40
0
 41
0
  0
VERTEX
  8
0
 10
3.70594
 20
1.61806
 30
0.0
 40
0
 41
0
  0
VERTEX
  8
0
 10
3.73313
 20
1.64324
 30
0.0
 40
0
 41
0
  0
VERTEX
  8
0
 10
3.23313
 20
1.89318
 30
0.0
 40
0
 41
0
  0
VERTEX
  8
0
 10
3.20594
 20
1.868
 30
0.0
 40
0
 41
0
  0
SEQEND
 8
0
  0
POLYLINE
  8
0
 62
     254
 66
     1
 10
0
 20
0
 30
0.0
 70
     1
 40
0
 41
0
  0
VERTEX
  8
0
 10
3.23313
 20
1.89318
 30
0.0
 40
0
 41
0
  0
VERTEX
  8
0
 10
3.73313
 20
1.64324
 30
0.0
 40
0
 41
0
  0
VERTEX
  8
0
 10
3.75851
 20
1.66943
 30
0.0
 40
0
 41
0
  0
VERTEX
  8
0
 10
3.25851
 20
1.91943
 30
0.0
 40
0
 41
0
  0
VERTEX
  8
0
 10
3.23313
 20
1.89318
 30
0.0
 40
0
 41
0
  0
SEQEND
 8
0
  0
POLYLINE
  8
0
 62
     254
 66
     1
 10
0
 20
0
 30
0.0
 70
     1
 40
0
 41
0
  0
VERTEX
  8
0
 10
3.25851
 20
1.91943
 30
0.0
 40
0
 41
0
  0
VERTEX
  8
0
 10
3.75851
 20
1.66943
 30
0.0
 40
0
 41
0
  0
VERTEX
  8
0
 10
3.78207
 20
1.69667
 30
0.0
 40
0
 41
0
  0
VERTEX
  8
0
 10
3.28207
 20
1.94667
 30
0.0
 40
0
 41
0
  0
VERTEX
  8
0
 10
3.25851
 20
1.91943
 30
0.0
 40
0
 41
0
  0
SEQEND
 8
0
  0
POLYLINE
  8
0
 62
     254
 66
     1
 10
0
 20
0
 30
0.0
 70
     1
 40
0
 41
0
  0
VERTEX
  8
0
 10
3.28207
 20
1.94667
 30
0.0
 40
0
 41
0
  0
VERTEX
  8
0
 10
3.78207
 20
1.69667
 30
0.0
 40
0
 41
0
  0
VERTEX
  8
0
 10
3.80376
 20
1.72499
 30
0.0
 40
0
 41
0
  0
VERTEX
  8
0
 10
3.30376
 20
1.97499
 30
0.0
 40
0
 41
0
  0
VERTEX
  8
0
 10
3.28207
 20
1.94667
 30
0.0
 40
0
 41
0
  0
SEQEND
 8
0
  0
POLYLINE
  8
0
 62
     254
 66
     1
 10
0
 20
0
 30
0.0
 70
     1
 40
0
 41
0
  0
VERTEX
  8
0
 10
3.30376
 20
1.97499
 30
0.0
 40
0
 41
0
  0
VERTEX
  8
0
 10
3.80376
 20
1.72499
 30
0.0
 40
0
 41
0
  0
VERTEX
  8
0
 10
3.82362
 20
1.75435
 30
0.0
 40
0
 41
0
  0
VERTEX
  8
0
 10
3.32362
 20
2.00435
 30
0.0
 40
0
 41
0
  0
VERTEX
  8
0
 10
3.30376
 20
1.97499
 30
0.0
 40
0
 41
0
  0
SEQEND
 8
0
  0
POLYLINE
  8
0
 62
     254
 66
     1
 10
0
 20
0
 30
0.0
 70
     1
 40
0
 41
0
  0
VERTEX
  8
0
 10
3.32362
 20
2.00435
 30
0.0
 40
0
 41
0
  0
VERTEX
  8
0
 10
3.82362
 20
1.75435
 30
0.0
 40
0
 41
0
  0
VERTEX
  8
0
 10
3.84169
 20
1.78472
 30
0.0
 40
0
 41
0
  0
VERTEX
  8
0
 10
3.34169
 20
2.03472
 30
0.0
 40
0
 41
0
  0
VERTEX
  8
0
 10
3.32362
 20
2.00435
 30
0.0
 40
0
 41
0
  0
SEQEND
 8
0
  0
POLYLINE
  8
0
 62
     254
 66
     1
 10
0
 20
0
 30
0.0
 70
     1
 40
0
 41
0
  0
VERTEX
  8
0
 10
3.34169
 20
2.03472
 30
0.0
 40
0
 41
0
  0
VERTEX
  8
0
 10
3.84169
 20
1.78472
 30
0.0
 40
0
 41
0
  0
VERTEX
  8
0
 10
3.85786
 20
1.81614
 30
0.0
 40
0
 41
0
  0
VERTEX
  8
0
 10
3.35786
 20
2.06614
 30
0.0
 40
0
 41
0
  0
VERTEX
  8
0
 10
3.34169
 20
2.03472
 30
0.0
 40
0
 41
0
  0
SEQEND
 8
0
  0
POLYLINE
  8
0
 62
     254
 66
     1
 10
0
 20
0
 30
0.0
 70
     1
 40
0
 41
0
  0
VERTEX
  8
0
 10
3.35786
 20
2.06614
 30
0.0
 40
0
 41
0
  0
VERTEX
  8
0
 10
3.85786
 20
1.81614
 30
0.0
 40
0
 41
0
  0
VERTEX
  8
0
 10
3.87224
 20
1.84864
 30
0.0
 40
0
 41
0
  0
VERTEX
  8
0
 10
3.37224
 20
2.09864
 30
0.0
 40
0
 41
0
  0
VERTEX
  8
0
 10
3.35786
 20
2.06614
 30
0.0
 40
0
 41
0
  0
SEQEND
 8
0
  0
POLYLINE
  8
0
 62
     254
 66
     1
 10
0
 20
0
 30
0.0
 70
     1
 40
0
 41
0
  0
VERTEX
  8
0
 10
3.37224
 20
2.09864
 30
0.0
 40
0
 41
0
  0
VERTEX
  8
0
 10
3.87224
 20
1.84864
 30
0.0
 40
0
 41
0
  0
VERTEX
  8
0
 10
3.88476
 20
1.88211
 30
0.0
 40
0
 41
0
  0
VERTEX
  8
0
 10
3.38476
 20
2.13211
 30
0.0
 40
0
 41
0
  0
VERTEX
  8
0
 10
3.37224
 20
2.09864
 30
0.0
 40
0
 41
0
  0
SEQEND
 8
0
  0
POLYLINE
  8
0
 62
     254
 66
     1
 10
0
 20
0
 30
0.0
 70
     1
 40
0
 41
0
  0
VERTEX
  8
0
 10
3.38476
 20
2.13211
 30
0.0
 40
0
 41
0
  0
VERTEX
  8
0
 10
3.88476
 20
1.88211
 30
0.0
 40
0
 41
0
  0
VERTEX
  8
0
 10
3.89546
 20
1.91667
 30
0.0
 40
0
 41
0
  0
VERTEX
  8
0
 10
3.39546
 20
2.16667
 30
0.0
 40
0
 41
0
  0
VERTEX
  8
0
 10
3.38476
 20
2.13211
 30
0.0
 40
0
 41
0
  0
SEQEND
 8
0
  0
POLYLINE
  8
0
 62
     254
 66
     1
 10
0
 20
0
 30
0.0
 70
     1
 40
0
 41
0
  0
VERTEX
  8
0
 10
3.39546
 20
2.16667
 30
0.0
 40
0
 41
0
  0
VERTEX
  8
0
 10
3.89546
 20
1.91667
 30
0.0
 40
0
 41
0
  0
VERTEX
  8
0
 10
3.90429
 20
1.95226
 30
0.0
 40
0
 41
0
  0
VERTEX
  8
0
 10
3.40429
 20
2.20226
 30
0.0
 40
0
 41
0
  0
VERTEX
  8
0
 10
3.39546
 20
2.16667
 30
0.0
 40
0
 41
0
  0
SEQEND
 8
0
  0
POLYLINE
  8
0
 62
     254
 66
     1
 10
0
 20
0
 30
0.0
 70
     1
 40
0
 41
0
  0
VERTEX
  8
0
 10
3.40429
 20
2.20226
 30
0.0
 40
0
 41
0
  0
VERTEX
  8
0
 10
3.90429
 20
1.95226
 30
0.0
 40
0
 41
0
  0
VERTEX
  8
0
 10
3.91129
 20
1.98888
 30
0.0
 40
0
 41
0
  0
VERTEX
  8
0
 10
3.41129
 20
2.23888
 30
0.0
 40
0
 41
0
  0
VERTEX
  8
0
 10
3.40429
 20
2.20226
 30
0.0
 40
0
 41
0
  0
SEQEND
 8
0
  0
POLYLINE
  8
0
 62
     254
 66
     1
 10
0
 20
0
 30
0.0
 70
     1
 40
0
 41
0
  0
VERTEX
  8
0
 10
3.41129
 20
2.23888
 30
0.0
 40
0
 41
0
  0
VERTEX
  8
0
 10
3.91129
 20
1.98888
 30
0.0
 40
0
 41
0
  0
VERTEX
  8
0
 10
3.9165
 20
2.02658
 30
0.0
 40
0
 41
0
  0
VERTEX
  8
0
 10
3.4165
 20
2.27658
 30
0.0
 40
0
 41
0
  0
VERTEX
  8
0
 10
3.41129
 20
2.23888
 30
0.0
 40
0
 41
0
  0
SEQEND
 8
0
  0
POLYLINE
  8
0
 62
     254
 66
     1
 10
0
 20
0
 30
0.0
 70
     1
 40
0
 41
0
  0
VERTEX
  8
0
 10
3.4165
 20
2.27658
 30
0.0
 40
0
 41
0
  0
VERTEX
  8
0
 10
3.9165
 20
2.02658
 30
0.0
 40
0
 41
0
  0
VERTEX
  8
0
 10
3.91986
 20
2.06532
 30
0.0
 40
0
 41
0
  0
VERTEX
  8
0
 10
3.41986
 20
2.31526
 30
0.0
 40
0
 41
0
  0
VERTEX
  8
0
 10
3.4165
 20
2.27658
 30
0.0
 40
0
 41
0
  0
SEQEND
 8
0
  0
POLYLINE
  8
0
 62
     254
 66
     1
 10
0
 20
0
 30
0.0
 70
     1
 40
0
 41
0
  0
VERTEX
  8
0
 10
3.41986
 20
2.31526
 30
0.0
 40
0
 41
0
  0
VERTEX
  8
0
 10
3.91986
 20
2.06532
 30
0.0
 40
0
 41
0
  0
VERTEX
  8
0
 10
3.92133
 20
2.10508
 30
0.0
 40
0
 41
0
  0
VERTEX
  8
0
 10
3.42133
 20
2.35504
 30
0.0
 40
0
 41
0
  0
VERTEX
  8
0
 10
3.41986
 20
2.31526
 30
0.0
 40
0
 41
0
  0
SEQEND
 8
0
  0
POLYLINE
  8
0
 62
     254
 66
     1
 10
0
 20
0
 30
0.0
 70
     1
 40
0
 41
0
  0
VERTEX
  8
0
 10
3.42133
 20
2.35504
 30
0.0
 40
0
 41
0
  0
VERTEX
  8
0
 10
3.92133
 20
2.10508
 30
0.0
 40
0
 41
0
  0
VERTEX
  8
0
 10
3.92106
 20
2.14589
 30
0.0
 40
0
 41
0
  0
VERTEX
  8
0
 10
3.42106
 20
2.39583
 30
0.0
 40
0
 41
0
  0
VERTEX
  8
0
 10
3.42133
 20
2.35504
 30
0.0
 40
0
 41
0
  0
SEQEND
 8
0
  0
POLYLINE
  8
0
 62
     254
 66
     1
 10
0
 20
0
 30
0.0
 70
     1
 40
0
 41
0
  0
VERTEX
  8
0
 10
3.42106
 20
2.39583
 30
0.0
 40
0
 41
0
  0
VERTEX
  8
0
 10
3.92106
 20
2.14589
 30
0.0
 40
0
 41
0
  0
VERTEX
  8
0
 10
3.91889
 20
2.18772
 30
0.0
 40
0
 41
0
  0
VERTEX
  8
0
 10
3.41889
 20
2.43772
 30
0.0
 40
0
 41
0
  0
VERTEX
  8
0
 10
3.42106
 20
2.39583
 30
0.0
 40
0
 41
0
  0
SEQEND
 8
0
  0
POLYLINE
  8
0
 62
     254
 66
     1
 10
0
 20
0
 30
0.0
 70
     1
 40
0
 41
0
  0
VERTEX
  8
0
 10
3.41889
 20
2.43772
 30
0.0
 40
0
 41
0
  0
VERTEX
  8
0
 10
3.91889
 20
2.18772
 30
0.0
 40
0
 41
0
  0
VERTEX
  8
0
 10
3.91488
 20
2.23058
 30
0.0
 40
0
 41
0
  0
VERTEX
  8
0
 10
3.41488
 20
2.48058
 30
0.0
 40
0
 41
0
  0
VERTEX
  8
0
 10
3.41889
 20
2.43772
 30
0.0
 40
0
 41
0
  0
SEQEND
 8
0
  0
POLYLINE
  8
0
 62
     254
 66
     1
 10
0
 20
0
 30
0.0
 70
     1
 40
0
 41
0
  0
VERTEX
  8
0
 10
3.41488
 20
2.48058
 30
0.0
 40
0
 41
0
  0
VERTEX
  8
0
 10
3.91488
 20
2.23058
 30
0.0
 40
0
 41
0
  0
VERTEX
  8
0
 10
3.90907
 20
2.27453
 30
0.0
 40
0
 41
0
  0
VERTEX
  8
0
 10
3.40907
 20
2.52453
 30
0.0
 40
0
 41
0
  0
VERTEX
  8
0
 10
3.41488
 20
2.48058
 30
0.0
 40
0
 41
0
  0
SEQEND
 8
0
  0
POLYLINE
  8
0
 62
     254
 66
     1
 10
0
 20
0
 30
0.0
 70
     1
 40
0
 41
0
  0
VERTEX
  8
0
 10
3.40907
 20
2.52453
 30
0.0
 40
0
 41
0
  0
VERTEX
  8
0
 10
3.90907
 20
2.27453
 30
0.0
 40
0
 41
0
  0
VERTEX
  8
0
 10
3.90142
 20
2.3195
 30
0.0
 40
0
 41
0
  0
VERTEX
  8
0
 10
3.40142
 20
2.5695
 30
0.0
 40
0
 41
0
  0
VERTEX
  8
0
 10
3.40907
 20
2.52453
 30
0.0
 40
0
 41
0
  0
SEQEND
 8
0
  0
POLYLINE
  8
0
 62
     254
 66
     1
 10
0
 20
0
 30
0.0
 70
     1
 40
0
 41
0
  0
VERTEX
  8
0
 10
3.40142
 20
2.5695
 30
0.0
 40
0
 41
0
  0
VERTEX
  8
0
 10
3.90142
 20
2.3195
 30
0.0
 40
0
 41
0
  0
VERTEX
  8
0
 10
3.89187
 20
2.3655
 30
0.0
 40
0
 41
0
  0
VERTEX
  8
0
 10
3.39187
 20
2.6155
 30
0.0
 40
0
 41
0
  0
VERTEX
  8
0
 10
3.40142
 20
2.5695
 30
0.0
 40
0
 41
0
  0
SEQEND
 8
0
  0
POLYLINE
  8
0
 62
     254
 66
     1
 10
0
 20
0
 30
0.0
 70
     1
 40
0
 41
0
  0
VERTEX
  8
0
 10
3.39187
 20
2.6155
 30
0.0
 40
0
 41
0
  0
VERTEX
  8
0
 10
3.89187
 20
2.3655
 30
0.0
 40
0
 41
0
  0
VERTEX
  8
0
 10
3.88053
 20
2.41254
 30
0.0
 40
0
 41
0
  0
VERTEX
  8
0
 10
3.38053
 20
2.66254
 30
0.0
 40
0
 41
0
  0
VERTEX
  8
0
 10
3.39187
 20
2.6155
 30
0.0
 40
0
 41
0
  0
SEQEND
 8
0
  0
POLYLINE
  8
0
 62
     254
 66
     1
 10
0
 20
0
 30
0.0
 70
     1
 40
0
 41
0
  0
VERTEX
  8
0
 10
3.38053
 20
2.66254
 30
0.0
 40
0
 41
0
  0
VERTEX
  8
0
 10
3.88053
 20
2.41254
 30
0.0
 40
0
 41
0
  0
VERTEX
  8
0
 10
3.8674
 20
2.46067
 30
0.0
 40
0
 41
0
  0
VERTEX
  8
0
 10
3.3674
 20
2.71067
 30
0.0
 40
0
 41
0
  0
VERTEX
  8
0
 10
3.38053
 20
2.66254
 30
0.0
 40
0
 41
0
  0
SEQEND
 8
0
  0
POLYLINE
  8
0
 62
     0
 66
     1
 10
0
 20
0
 30
0.0
 70
     1
 40
1.00006
 41
1.00006
  0
VERTEX
  8
0
 10
2.87842
 20
1.68832
 30
0.0
 40
0.0138897
 41
0.0138897
  0
VERTEX
  8
0
 10
3.37842
 20
1.43832
 30
0.0
 40
0.0138897
 41
0.0138897
  0
VERTEX
  8
0
 10
3.42215
 20
1.4541
 30
0.0
 40
0.0138897
 41
0.0138897
  0
VERTEX
  8
0
 10
3.46403
 20
1.47097
 30
0.0
 40
0.0138897
 41
0.0138897
  0
VERTEX
  8
0
 10
3.50412
 20
1.48887
 30
0.0
 40
0.0138897
 41
0.0138897
  0
VERTEX
  8
0
 10
3.54232
 20
1.50776
 30
0.0
 40
0.0138897
 41
0.0138897
  0
VERTEX
  8
0
 10
3.57872
 20
1.52772
 30
0.0
 40
0.0138897
 41
0.0138897
  0
VERTEX
  8
0
 10
3.61328
 20
1.54878
 30
0.0
 40
0.0138897
 41
0.0138897
  0
VERTEX
  8
0
 10
3.646
 20
1.57081
 30
0.0
 40
0.0138897
 41
0.0138897
  0
VERTEX
  8
0
 10
3.67686
 20
1.59392
 30
0.0
 40
0.0138897
 41
0.0138897
  0
VERTEX
  8
0
 10
3.70594
 20
1.61806
 30
0.0
 40
0.0138897
 41
0.0138897
  0
VERTEX
  8
0
 10
3.73313
 20
1.64324
 30
0.0
 40
0.0138897
 41
0.0138897
  0
VERTEX
  8
0
 10
3.75851
 20
1.66943
 30
0.0
 40
0.0138897
 41
0.0138897
  0
VERTEX
  8
0
 10
3.78207
 20
1.69667
 30
0.0
 40
0.0138897
 41
0.0138897
  0
VERTEX
  8
0
 10
3.80376
 20
1.72499
 30
0.0
 40
0.0138897
 41
0.0138897
  0
VERTEX
  8
0
 10
3.82362
 20
1.75435
 30
0.0
 40
0.0138897
 41
0.0138897
  0
VERTEX
  8
0
 10
3.84169
 20
1.78472
 30
0.0
 40
0.0138897
 41
0.0138897
  0
VERTEX
  8
0
 10
3.85786
 20
1.81614
 30
0.0
 40
0.0138897
 41
0.0138897
  0
VERTEX
  8
0
 10
3.87224
 20
1.84864
 30
0.0
 40
0.0138897
 41
0.0138897
  0
VERTEX
  8
0
 10
3.88476
 20
1.88211
 30
0.0
 40
0.0138897
 41
0.0138897
  0
VERTEX
  8
0
 10
3.89546
 20
1.91667
 30
0.0
 40
0.0138897
 41
0.0138897
  0
VERTEX
  8
0
 10
3.90429
 20
1.95226
 30
0.0
 40
0.0138897
 41
0.0138897
  0
VERTEX
  8
0
 10
3.91129
 20
1.98888
 30
0.0
 40
0.0138897
 41
0.0138897
  0
VERTEX
  8
0
 10
3.9165
 20
2.02658
 30
0.0
 40
0.0138897
 41
0.0138897
  0
VERTEX
  8
0
 10
3.91986
 20
2.06532
 30
0.0
 40
0.0138897
 41
0.0138897
  0
VERTEX
  8
0
 10
3.92133
 20
2.10508
 30
0.0
 40
0.0138897
 41
0.0138897
  0
VERTEX
  8
0
 10
3.92106
 20
2.14589
 30
0.0
 40
0.0138897
 41
0.0138897
  0
VERTEX
  8
0
 10
3.91889
 20
2.18772
 30
0.0
 40
0.0138897
 41
0.0138897
  0
VERTEX
  8
0
 10
3.91488
 20
2.23058
 30
0.0
 40
0.0138897
 41
0.0138897
  0
VERTEX
  8
0
 10
3.90907
 20
2.27453
 30
0.0
 40
0.0138897
 41
0.0138897
  0
VERTEX
  8
0
 10
3.90142
 20
2.3195
 30
0.0
 40
0.0138897
 41
0.0138897
  0
VERTEX
  8
0
 10
3.89187
 20
2.3655
 30
0.0
 40
0.0138897
 41
0.0138897
  0
VERTEX
  8
0
 10
3.88053
 20
2.41254
 30
0.0
 40
0.0138897
 41
0.0138897
  0
VERTEX
  8
0
 10
3.8674
 20
2.46067
 30
0.0
 40
0.0138897
 41
0.0138897
  0
VERTEX
  8
0
 10
3.3674
 20
2.71067
 30
0.0
 40
0.0138897
 41
0.0138897
  0
VERTEX
  8
0
 10
3.38053
 20
2.66254
 30
0.0
 40
0.0138897
 41
0.0138897
  0
VERTEX
  8
0
 10
3.39187
 20
2.6155
 30
0.0
 40
0.0138897
 41
0.0138897
  0
VERTEX
  8
0
 10
3.40142
 20
2.5695
 30
0.0
 40
0.0138897
 41
0.0138897
  0
VERTEX
  8
0
 10
3.40907
 20
2.52453
 30
0.0
 40
0.0138897
 41
0.0138897
  0
VERTEX
  8
0
 10
3.41488
 20
2.48058
 30
0.0
 40
0.0138897
 41
0.0138897
  0
VERTEX
  8
0
 10
3.41889
 20
2.43772
 30
0.0
 40
0.0138897
 41
0.0138897
  0
VERTEX
  8
0
 10
3.42106
 20
2.39583
 30
0.0
 40
0.0138897
 41
0.0138897
  0
VERTEX
  8
0
 10
3.42133
 20
2.35504
 30
0.0
 40
0.0138897
 41
0.0138897
  0
VERTEX
  8
0
 10
3.41986
 20
2.31526
 30
0.0
 40
0.0138897
 41
0.0138897
  0
VERTEX
  8
0
 10
3.4165
 20
2.27658
 30
0.0
 40
0.0138897
 41
0.0138897
  0
VERTEX
  8
0
 10
3.41129
 20
2.23888
 30
0.0
 40
0.0138897
 41
0.0138897
  0
VERTEX
  8
0
 10
3.40429
 20
2.20226
 30
0.0
 40
0.0138897
 41
0.0138897
  0
VERTEX
  8
0
 10
3.39546
 20
2.16667
 30
0.0
 40
0.0138897
 41
0.0138897
  0
VERTEX
  8
0
 10
3.38476
 20
2.13211
 30
0.0
 40
0.0138897
 41
0.0138897
  0
VERTEX
  8
0
 10
3.37224
 20
2.09864
 30
0.0
 40
0.0138897
 41
0.0138897
  0
VERTEX
  8
0
 10
3.35786
 20
2.06614
 30
0.0
 40
0.0138897
 41
0.0138897
  0
VERTEX
  8
0
 10
3.34169
 20
2.03472
 30
0.0
 40
0.0138897
 41
0.0138897
  0
VERTEX
  8
0
 10
3.32362
 20
2.00435
 30
0.0
 40
0.0138897
 41
0.0138897
  0
VERTEX
  8
0
 10
3.30376
 20
1.97499
 30
0.0
 40
0.0138897
 41
0.0138897
  0
VERTEX
  8
0
 10
3.28207
 20
1.94667
 30
0.0
 40
0.0138897
 41
0.0138897
  0
VERTEX
  8
0
 10
3.25851
 20
1.91943
 30
0.0
 40
0.0138897
 41
0.0138897
  0
VERTEX
  8
0
 10
3.23313
 20
1.89318
 30
0.0
 40
0.0138897
 41
0.0138897
  0
VERTEX
  8
0
 10
3.20594
 20
1.868
 30
0.0
 40
0.0138897
 41
0.0138897
  0
VERTEX
  8
0
 10
3.17686
 20
1.84386
 30
0.0
 40
0.0138897
 41
0.0138897
  0
VERTEX
  8
0
 10
3.146
 20
1.82081
 30
0.0
 40
0.0138897
 41
0.0138897
  0
VERTEX
  8
0
 10
3.11328
 20
1.79878
 30
0.0
 40
0.0138897
 41
0.0138897
  0
VERTEX
  8
0
 10
3.07872
 20
1.77772
 30
0.0
 40
0.0138897
 41
0.0138897
  0
VERTEX
  8
0
 10
3.04232
 20
1.75776
 30
0.0
 40
0.0138897
 41
0.0138897
  0
VERTEX
  8
0
 10
3.00412
 20
1.73882
 30
0.0
 40
0.0138897
 41
0.0138897
  0
VERTEX
  8
0
 10
2.96403
 20
1.72097
 30
0.0
 40
0.0138897
 41
0.0138897
  0
VERTEX
  8
0
 10
2.92215
 20
1.7041
 30
0.0
 40
0.0138897
 41
0.0138897
  0
VERTEX
  8
0
 10
2.87842
 20
1.68832
 30
0.0
 40
0.0138897
 41
0.0138897
  0
SEQEND
 8
0
  0
POLYLINE
  8
0
 62
     253
 66
     1
 10
0
 20
0
 30
0.0
 70
     1
 40
0
 41
0
  0
VERTEX
  8
0
 10
3.3674
 20
2.71067
 30
0.0
 40
0
 41
0
  0
VERTEX
  8
0
 10
3.8674
 20
2.46067
 30
0.0
 40
0
 41
0
  0
VERTEX
  8
0
 10
4.03857
 20
2.5339
 30
0.0
 40
0
 41
0
  0
VERTEX
  8
0
 10
3.53857
 20
2.7839
 30
0.0
 40
0
 41
0
  0
VERTEX
  8
0
 10
3.3674
 20
2.71067
 30
0.0
 40
0
 41
0
  0
SEQEND
 8
0
  0
POLYLINE
  8
0
 62
     253
 66
     1
 10
0
 20
0
 30
0.0
 70
     1
 40
0
 41
0
  0
VERTEX
  8
0
 10
3.53857
 20
2.7839
 30
0.0
 40
0
 41
0
  0
VERTEX
  8
0
 10
4.03857
 20
2.5339
 30
0.0
 40
0
 41
0
  0
VERTEX
  8
0
 10
4.18804
 20
2.60835
 30
0.0
 40
0
 41
0
  0
VERTEX
  8
0
 10
3.68804
 20
2.85835
 30
0.0
 40
0
 41
0
  0
VERTEX
  8
0
 10
3.53857
 20
2.7839
 30
0.0
 40
0
 41
0
  0
SEQEND
 8
0
  0
POLYLINE
  8
0
 62
     253
 66
     1
 10
0
 20
0
 30
0.0
 70
     1
 40
0
 41
0
  0
VERTEX
  8
0
 10
3.68804
 20
2.85835
 30
0.0
 40
0
 41
0
  0
VERTEX
  8
0
 10
4.18804
 20
2.60835
 30
0.0
 40
0
 41
0
  0
VERTEX
  8
0
 10
4.31722
 20
2.68392
 30
0.0
 40
0
 41
0
  0
VERTEX
  8
0
 10
3.81722
 20
2.93386
 30
0.0
 40
0
 41
0
  0
VERTEX
  8
0
 10
3.68804
 20
2.85835
 30
0.0
 40
0
 41
0
  0
SEQEND
 8
0
  0
POLYLINE
  8
0
 62
     33
 66
     1
 10
0
 20
0
 30
0.0
 70
     1
 40
0
 41
0
  0
VERTEX
  8
0
 10
3.81722
 20
2.93386
 30
0.0
 40
0
 41
0
  0
VERTEX
  8
0
 10
4.31722
 20
2.68392
 30
0.0
 40
0
 41
0
  0
VERTEX
  8
0
 10
4.42768
 20
2.76047
 30
0.0
 40
0
 41
0
  0
VERTEX
  8
0
 10
3.92768
 20
3.01047
 30
0.0
 40
0
 41
0
  0
VERTEX
  8
0
 10
3.81722
 20
2.93386
 30
0.0
 40
0
 41
0
  0
SEQEND
 8
0
  0
POLYLINE
  8
0
 62
     254
 66
     1
 10
0
 20
0
 30
0.0
 70
     1
 40
0
 41
0
  0
VERTEX
  8
0
 10
3.92768
 20
3.01047
 30
0.0
 40
0
 41
0
  0
VERTEX
  8
0
 10
4.42768
 20
2.76047
 30
0.0
 40
0
 41
0
  0
VERTEX
  8
0
 10
4.52094
 20
2.83794
 30
0.0
 40
0
 41
0
  0
VERTEX
  8
0
 10
4.02094
 20
3.08794
 30
0.0
 40
0
 41
0
  0
VERTEX
  8
0
 10
3.92768
 20
3.01047
 30
0.0
 40
0
 41
0
  0
SEQEND
 8
0
  0
POLYLINE
  8
0
 62
     254
 66
     1
 10
0
 20
0
 30
0.0
 70
     1
 40
0
 41
0
  0
VERTEX
  8
0
 10
4.02094
 20
3.08794
 30
0.0
 40
0
 41
0
  0
VERTEX
  8
0
 10
4.52094
 20
2.83794
 30
0.0
 40
0
 41
0
  0
VERTEX
  8
0
 10
4.59847
 20
2.91635
 30
0.0
 40
0
 41
0
  0
VERTEX
  8
0
 10
4.09847
 20
3.16635
 30
0.0
 40
0
 41
0
  0
VERTEX
  8
0
 10
4.02094
 20
3.08794
 30
0.0
 40
0
 41
0
  0
SEQEND
 8
0
  0
POLYLINE
  8
0
 62
     254
 66
     1
 10
0
 20
0
 30
0.0
 70
     1
 40
0
 41
0
  0
VERTEX
  8
0
 10
4.09847
 20
3.16635
 30
0.0
 40
0
 41
0
  0
VERTEX
  8
0
 10
4.59847
 20
2.91635
 30
0.0
 40
0
 41
0
  0
VERTEX
  8
0
 10
4.66178
 20
2.9955
 30
0.0
 40
0
 41
0
  0
VERTEX
  8
0
 10
4.16178
 20
3.2455
 30
0.0
 40
0
 41
0
  0
VERTEX
  8
0
 10
4.09847
 20
3.16635
 30
0.0
 40
0
 41
0
  0
SEQEND
 8
0
  0
POLYLINE
  8
0
 62
     254
 66
     1
 10
0
 20
0
 30
0.0
 70
     1
 40
0
 41
0
  0
VERTEX
  8
0
 10
4.16178
 20
3.2455
 30
0.0
 40
0
 41
0
  0
VERTEX
  8
0
 10
4.66178
 20
2.9955
 30
0.0
 40
0
 41
0
  0
VERTEX
  8
0
 10
4.7124
 20
3.07536
 30
0.0
 40
0
 41
0
  0
VERTEX
  8
0
 10
4.2124
 20
3.32536
 30
0.0
 40
0
 41
0
  0
VERTEX
  8
0
 10
4.16178
 20
3.2455
 30
0.0
 40
0
 41
0
  0
SEQEND
 8
0
  0
POLYLINE
  8
0
 62
     254
 66
     1
 10
0
 20
0
 30
0.0
 70
     1
 40
0
 41
0
  0
VERTEX
  8
0
 10
4.2124
 20
3.32536
 30
0.0
 40
0
 41
0
  0
VERTEX
  8
0
 10
4.7124
 20
3.07536
 30
0.0
 40
0
 41
0
  0
VERTEX
  8
0
 10
4.75179
 20
3.15582
 30
0.0
 40
0
 41
0
  0
VERTEX
  8
0
 10
4.25179
 20
3.40582
 30
0.0
 40
0
 41
0
  0
VERTEX
  8
0
 10
4.2124
 20
3.32536
 30
0.0
 40
0
 41
0
  0
SEQEND
 8
0
  0
POLYLINE
  8
0
 62
     254
 66
     1
 10
0
 20
0
 30
0.0
 70
     1
 40
0
 41
0
  0
VERTEX
  8
0
 10
4.25179
 20
3.40582
 30
0.0
 40
0
 41
0
  0
VERTEX
  8
0
 10
4.75179
 20
3.15582
 30
0.0
 40
0
 41
0
  0
VERTEX
  8
0
 10
4.78147
 20
3.23687
 30
0.0
 40
0
 41
0
  0
VERTEX
  8
0
 10
4.28147
 20
3.48687
 30
0.0
 40
0
 41
0
  0
VERTEX
  8
0
 10
4.25179
 20
3.40582
 30
0.0
 40
0
 41
0
  0
SEQEND
 8
0
  0
POLYLINE
  8
0
 62
     254
 66
     1
 10
0
 20
0
 30
0.0
 70
     1
 40
0
 41
0
  0
VERTEX
  8
0
 10
4.28147
 20
3.48687
 30
0.0
 40
0
 41
0
  0
VERTEX
  8
0
 10
4.78147
 20
3.23687
 30
0.0
 40
0
 41
0
  0
VERTEX
  8
0
 10
4.803
 20
3.31836
 30
0.0
 40
0
 41
0
  0
VERTEX
  8
0
 10
4.303
 20
3.56836
 30
0.0
 40
0
 41
0
  0
VERTEX
  8
0
 10
4.28147
 20
3.48687
 30
0.0
 40
0
 41
0
  0
SEQEND
 8
0
  0
POLYLINE
  8
0
 62
     254
 66
     1
 10
0
 20
0
 30
0.0
 70
     1
 40
0
 41
0
  0
VERTEX
  8
0
 10
4.303
 20
3.56836
 30
0.0
 40
0
 41
0
  0
VERTEX
  8
0
 10
4.803
 20
3.31836
 30
0.0
 40
0
 41
0
  0
VERTEX
  8
0
 10
4.81787
 20
3.40022
 30
0.0
 40
0
 41
0
  0
VERTEX
  8
0
 10
4.31787
 20
3.65022
 30
0.0
 40
0
 41
0
  0
VERTEX
  8
0
 10
4.303
 20
3.56836
 30
0.0
 40
0
 41
0
  0
SEQEND
 8
0
  0
POLYLINE
  8
0
 62
     254
 66
     1
 10
0
 20
0
 30
0.0
 70
     1
 40
0
 41
0
  0
VERTEX
  8
0
 10
4.31787
 20
3.65022
 30
0.0
 40
0
 41
0
  0
VERTEX
  8
0
 10
4.81787
 20
3.40022
 30
0.0
 40
0
 41
0
  0
VERTEX
  8
0
 10
4.82753
 20
3.48242
 30
0.0
 40
0
 41
0
  0
VERTEX
  8
0
 10
4.32753
 20
3.73242
 30
0.0
 40
0
 41
0
  0
VERTEX
  8
0
 10
4.31787
 20
3.65022
 30
0.0
 40
0
 41
0
  0
SEQEND
 8
0
  0
POLYLINE
  8
0
 62
     254
 66
     1
 10
0
 20
0
 30
0.0
 70
     1
 40
0
 41
0
  0
VERTEX
  8
0
 10
4.32753
 20
3.73242
 30
0.0
 40
0
 41
0
  0
VERTEX
  8
0
 10
4.82753
 20
3.48242
 30
0.0
 40
0
 41
0
  0
VERTEX
  8
0
 10
4.83356
 20
3.56483
 30
0.0
 40
0
 41
0
  0
VERTEX
  8
0
 10
4.33356
 20
3.81483
 30
0.0
 40
0
 41
0
  0
VERTEX
  8
0
 10
4.32753
 20
3.73242
 30
0.0
 40
0
 41
0
  0
SEQEND
 8
0
  0
POLYLINE
  8
0
 62
     254
 66
     1
 10
0
 20
0
 30
0.0
 70
     1
 40
0
 41
0
  0
VERTEX
  8
0
 10
4.33356
 20
3.81483
 30
0.0
 40
0
 41
0
  0
VERTEX
  8
0
 10
4.83356
 20
3.56483
 30
0.0
 40
0
 41
0
  0
VERTEX
  8
0
 10
4.8374
 20
3.64735
 30
0.0
 40
0
 41
0
  0
VERTEX
  8
0
 10
4.3374
 20
3.89735
 30
0.0
 40
0
 41
0
  0
VERTEX
  8
0
 10
4.33356
 20
3.81483
 30
0.0
 40
0
 41
0
  0
SEQEND
 8
0
  0
POLYLINE
  8
0
 62
     254
 66
     1
 10
0
 20
0
 30
0.0
 70
     1
 40
0
 41
0
  0
VERTEX
  8
0
 10
4.3374
 20
3.89735
 30
0.0
 40
0
 41
0
  0
VERTEX
  8
0
 10
4.8374
 20
3.64735
 30
0.0
 40
0
 41
0
  0
VERTEX
  8
0
 10
4.84056
 20
3.72993
 30
0.0
 40
0
 41
0
  0
VERTEX
  8
0
 10
4.34056
 20
3.97993
 30
0.0
 40
0
 41
0
  0
VERTEX
  8
0
 10
4.3374
 20
3.89735
 30
0.0
 40
0
 41
0
  0
SEQEND
 8
0
  0
POLYLINE
  8
0
 62
     254
 66
     1
 10
0
 20
0
 30
0.0
 70
     1
 40
0
 41
0
  0
VERTEX
  8
0
 10
4.34056
 20
3.97993
 30
0.0
 40
0
 41
0
  0
VERTEX
  8
0
 10
4.84056
 20
3.72993
 30
0.0
 40
0
 41
0
  0
VERTEX
  8
0
 10
4.84462
 20
3.8125
 30
0.0
 40
0
 41
0
  0
VERTEX
  8
0
 10
4.34462
 20
4.0625
 30
0.0
 40
0
 41
0
  0
VERTEX
  8
0
 10
4.34056
 20
3.97993
 30
0.0
 40
0
 41
0
  0
SEQEND
 8
0
  0
POLYLINE
  8
0
 62
     254
 66
     1
 10
0
 20
0
 30
0.0
 70
     1
 40
0
 41
0
  0
VERTEX
  8
0
 10
4.34462
 20
4.0625
 30
0.0
 40
0
 41
0
  0
VERTEX
  8
0
 10
4.84462
 20
3.8125
 30
0.0
 40
0
 41
0
  0
VERTEX
  8
0
 10
4.85107
 20
3.89501
 30
0.0
 40
0
 41
0
  0
VERTEX
  8
0
 10
4.35107
 20
4.14501
 30
0.0
 40
0
 41
0
  0
VERTEX
  8
0
 10
4.34462
 20
4.0625
 30
0.0
 40
0
 41
0
  0
SEQEND
 8
0
  0
POLYLINE
  8
0
 62
     254
 66
     1
 10
0
 20
0
 30
0.0
 70
     1
 40
0
 41
0
  0
VERTEX
  8
0
 10
4.35107
 20
4.14501
 30
0.0
 40
0
 41
0
  0
VERTEX
  8
0
 10
4.85107
 20
3.89501
 30
0.0
 40
0
 41
0
  0
VERTEX
  8
0
 10
4.86133
 20
3.97732
 30
0.0
 40
0
 41
0
  0
VERTEX
  8
0
 10
4.36133
 20
4.22732
 30
0.0
 40
0
 41
0
  0
VERTEX
  8
0
 10
4.35107
 20
4.14501
 30
0.0
 40
0
 41
0
  0
SEQEND
 8
0
  0
POLYLINE
  8
0
 62
     254
 66
     1
 10
0
 20
0
 30
0.0
 70
     1
 40
0
 41
0
  0
VERTEX
  8
0
 10
4.36133
 20
4.22732
 30
0.0
 40
0
 41
0
  0
VERTEX
  8
0
 10
4.86133
 20
3.97732
 30
0.0
 40
0
 41
0
  0
VERTEX
  8
0
 10
4.87701
 20
4.05935
 30
0.0
 40
0
 41
0
  0
VERTEX
  8
0
 10
4.37701
 20
4.30935
 30
0.0
 40
0
 41
0
  0
VERTEX
  8
0
 10
4.36133
 20
4.22732
 30
0.0
 40
0
 41
0
  0
SEQEND
 8
0
  0
POLYLINE
  8
0
 62
     254
 66
     1
 10
0
 20
0
 30
0.0
 70
     1
 40
0
 41
0
  0
VERTEX
  8
0
 10
4.37701
 20
4.30935
 30
0.0
 40
0
 41
0
  0
VERTEX
  8
0
 10
4.87701
 20
4.05935
 30
0.0
 40
0
 41
0
  0
VERTEX
  8
0
 10
4.89953
 20
4.14106
 30
0.0
 40
0
 41
0
  0
VERTEX
  8
0
 10
4.39953
 20
4.39106
 30
0.0
 40
0
 41
0
  0
VERTEX
  8
0
 10
4.37701
 20
4.30935
 30
0.0
 40
0
 41
0
  0
SEQEND
 8
0
  0
POLYLINE
  8
0
 62
     254
 66
     1
 10
0
 20
0
 30
0.0
 70
     1
 40
0
 41
0
  0
VERTEX
  8
0
 10
4.39953
 20
4.39106
 30
0.0
 40
0
 41
0
  0
VERTEX
  8
0
 10
4.89953
 20
4.14106
 30
0.0
 40
0
 41
0
  0
VERTEX
  8
0
 10
4.93044
 20
4.22233
 30
0.0
 40
0
 41
0
  0
VERTEX
  8
0
 10
4.43044
 20
4.47233
 30
0.0
 40
0
 41
0
  0
VERTEX
  8
0
 10
4.39953
 20
4.39106
 30
0.0
 40
0
 41
0
  0
SEQEND
 8
0
  0
POLYLINE
  8
0
 62
     254
 66
     1
 10
0
 20
0
 30
0.0
 70
     1
 40
0
 41
0
  0
VERTEX
  8
0
 10
4.43044
 20
4.47233
 30
0.0
 40
0
 41
0
  0
VERTEX
  8
0
 10
4.93044
 20
4.22233
 30
0.0
 40
0
 41
0
  0
VERTEX
  8
0
 10
4.97131
 20
4.30311
 30
0.0
 40
0
 41
0
  0
VERTEX
  8
0
 10
4.47131
 20
4.55311
 30
0.0
 40
0
 41
0
  0
VERTEX
  8
0
 10
4.43044
 20
4.47233
 30
0.0
 40
0
 41
0
  0
SEQEND
 8
0
  0
POLYLINE
  8
0
 62
     254
 66
     1
 10
0
 20
0
 30
0.0
 70
     1
 40
0
 41
0
  0
VERTEX
  8
0
 10
4.47131
 20
4.55311
 30
0.0
 40
0
 41
0
  0
VERTEX
  8
0
 10
4.97131
 20
4.30311
 30
0.0
 40
0
 41
0
  0
VERTEX
  8
0
 10
5.02354
 20
4.38336
 30
0.0
 40
0
 41
0
  0
VERTEX
  8
0
 10
4.52354
 20
4.63336
 30
0.0
 40
0
 41
0
  0
VERTEX
  8
0
 10
4.47131
 20
4.55311
 30
0.0
 40
0
 41
0
  0
SEQEND
 8
0
  0
POLYLINE
  8
0
 62
     254
 66
     1
 10
0
 20
0
 30
0.0
 70
     1
 40
0
 41
0
  0
VERTEX
  8
0
 10
4.52354
 20
4.63336
 30
0.0
 40
0
 41
0
  0
VERTEX
  8
0
 10
5.02354
 20
4.38336
 30
0.0
 40
0
 41
0
  0
VERTEX
  8
0
 10
5.08871
 20
4.46289
 30
0.0
 40
0
 41
0
  0
VERTEX
  8
0
 10
4.58871
 20
4.71289
 30
0.0
 40
0
 41
0
  0
VERTEX
  8
0
 10
4.52354
 20
4.63336
 30
0.0
 40
0
 41
0
  0
SEQEND
 8
0
  0
POLYLINE
  8
0
 62
     254
 66
     1
 10
0
 20
0
 30
0.0
 70
     1
 40
0
 41
0
  0
VERTEX
  8
0
 10
4.58871
 20
4.71289
 30
0.0
 40
0
 41
0
  0
VERTEX
  8
0
 10
5.08871
 20
4.46289
 30
0.0
 40
0
 41
0
  0
VERTEX
  8
0
 10
5.16824
 20
4.54167
 30
0.0
 40
0
 41
0
  0
VERTEX
  8
0
 10
4.66824
 20
4.79167
 30
0.0
 40
0
 41
0
  0
VERTEX
  8
0
 10
4.58871
 20
4.71289
 30
0.0
 40
0
 41
0
  0
SEQEND
 8
0
  0
POLYLINE
  8
0
 62
     254
 66
     1
 10
0
 20
0
 30
0.0
 70
     1
 40
0
 41
0
  0
VERTEX
  8
0
 10
4.66824
 20
4.79167
 30
0.0
 40
0
 41
0
  0
VERTEX
  8
0
 10
5.16824
 20
4.54167
 30
0.0
 40
0
 41
0
  0
VERTEX
  8
0
 10
5.26378
 20
4.61968
 30
0.0
 40
0
 41
0
  0
VERTEX
  8
0
 10
4.76378
 20
4.86968
 30
0.0
 40
0
 41
0
  0
VERTEX
  8
0
 10
4.66824
 20
4.79167
 30
0.0
 40
0
 41
0
  0
SEQEND
 8
0
  0
POLYLINE
  8
0
 62
     33
 66
     1
 10
0
 20
0
 30
0.0
 70
     1
 40
0
 41
0
  0
VERTEX
  8
0
 10
4.76378
 20
4.86968
 30
0.0
 40
0
 41
0
  0
VERTEX
  8
0
 10
5.26378
 20
4.61968
 30
0.0
 40
0
 41
0
  0
VERTEX
  8
0
 10
5.37668
 20
4.69678
 30
0.0
 40
0
 41
0
  0
VERTEX
  8
0
 10
4.87668
 20
4.94678
 30
0.0
 40
0
 41
0
  0
VERTEX
  8
0
 10
4.76378
 20
4.86968
 30
0.0
 40
0
 41
0
  0
SEQEND
 8
0
  0
POLYLINE
  8
0
 62
     253
 66
     1
 10
0
 20
0
 30
0.0
 70
     1
 40
0
 41
0
  0
VERTEX
  8
0
 10
4.87668
 20
4.94678
 30
0.0
 40
0
 41
0
  0
VERTEX
  8
0
 10
5.37668
 20
4.69678
 30
0.0
 40
0
 41
0
  0
VERTEX
  8
0
 10
5.50857
 20
4.77285
 30
0.0
 40
0
 41
0
  0
VERTEX
  8
0
 10
5.00857
 20
5.02285
 30
0.0
 40
0
 41
0
  0
VERTEX
  8
0
 10
4.87668
 20
4.94678
 30
0.0
 40
0
 41
0
  0
SEQEND
 8
0
  0
POLYLINE
  8
0
 62
     253
 66
     1
 10
0
 20
0
 30
0.0
 70
     1
 40
0
 41
0
  0
VERTEX
  8
0
 10
5.00857
 20
5.02285
 30
0.0
 40
0
 41
0
  0
VERTEX
  8
0
 10
5.50857
 20
4.77285
 30
0.0
 40
0
 41
0
  0
VERTEX
  8
0
 10
5.66086
 20
4.84787
 30
0.0
 40
0
 41
0
  0
VERTEX
  8
0
 10
5.16086
 20
5.09787
 30
0.0
 40
0
 41
0
  0
VERTEX
  8
0
 10
5.00857
 20
5.02285
 30
0.0
 40
0
 41
0
  0
SEQEND
 8
0
  0
POLYLINE
  8
0
 62
     253
 66
     1
 10
0
 20
0
 30
0.0
 70
     1
 40
0
 41
0
  0
VERTEX
  8
0
 10
5.16086
 20
5.09787
 30
0.0
 40
0
 41
0
  0
VERTEX
  8
0
 10
5.66086
 20
4.84787
 30
0.0
 40
0
 41
0
  0
VERTEX
  8
0
 10
5.83513
 20
4.92182
 30
0.0
 40
0
 41
0
  0
VERTEX
  8
0
 10
5.33513
 20
5.17176
 30
0.0
 40
0
 41
0
  0
VERTEX
  8
0
 10
5.16086
 20
5.09787
 30
0.0
 40
0
 41
0
  0
SEQEND
 8
0
  0
POLYLINE
  8
0
 62
     253
 66
     1
 10
0
 20
0
 30
0.0
 70
     1
 40
0
 41
0
  0
VERTEX
  8
0
 10
5.33513
 20
5.17176
 30
0.0
 40
0
 41
0
  0
VERTEX
  8
0
 10
5.83513
 20
4.92182
 30
0.0
 40
0
 41
0
  0
VERTEX
  8
0
 10
6.03288
 20
4.99447
 30
0.0
 40
0
 41
0
  0
VERTEX
  8
0
 10
5.53288
 20
5.24447
 30
0.0
 40
0
 41
0
  0
VERTEX
  8
0
 10
5.33513
 20
5.17176
 30
0.0
 40
0
 41
0
  0
SEQEND
 8
0
  0
POLYLINE
  8
0
 62
     0
 66
     1
 10
0
 20
0
 30
0.0
 70
     1
 40
1.00006
 41
1.00006
  0
VERTEX
  8
0
 10
3.3674
 20
2.71067
 30
0.0
 40
0.0138897
 41
0.0138897
  0
VERTEX
  8
0
 10
3.8674
 20
2.46067
 30
0.0
 40
0.0138897
 41
0.0138897
  0
VERTEX
  8
0
 10
4.03857
 20
2.5339
 30
0.0
 40
0.0138897
 41
0.0138897
  0
VERTEX
  8
0
 10
4.18804
 20
2.60835
 30
0.0
 40
0.0138897
 41
0.0138897
  0
VERTEX
  8
0
 10
4.31722
 20
2.68392
 30
0.0
 40
0.0138897
 41
0.0138897
  0
VERTEX
  8
0
 10
4.42768
 20
2.76047
 30
0.0
 40
0.0138897
 41
0.0138897
  0
VERTEX
  8
0
 10
4.52094
 20
2.83794
 30
0.0
 40
0.0138897
 41
0.0138897
  0
VERTEX
  8
0
 10
4.59847
 20
2.91635
 30
0.0
 40
0.0138897
 41
0.0138897
  0
VERTEX
  8
0
 10
4.66178
 20
2.9955
 30
0.0
 40
0.0138897
 41
0.0138897
  0
VERTEX
  8
0
 10
4.7124
 20
3.07536
 30
0.0
 40
0.0138897
 41
0.0138897
  0
VERTEX
  8
0
 10
4.75179
 20
3.15582
 30
0.0
 40
0.0138897
 41
0.0138897
  0
VERTEX
  8
0
 10
4.78147
 20
3.23687
 30
0.0
 40
0.0138897
 41
0.0138897
  0
VERTEX
  8
0
 10
4.803
 20
3.31836
 30
0.0
 40
0.0138897
 41
0.0138897
  0
VERTEX
  8
0
 10
4.81787
 20
3.40022
 30
0.0
 40
0.0138897
 41
0.0138897
  0
VERTEX
  8
0
 10
4.82753
 20
3.48242
 30
0.0
 40
0.0138897
 41
0.0138897
  0
VERTEX
  8
0
 10
4.83356
 20
3.56483
 30
0.0
 40
0.0138897
 41
0.0138897
  0
VERTEX
  8
0
 10
4.8374
 20
3.64735
 30
0.0
 40
0.0138897
 41
0.0138897
  0
VERTEX
  8
0
 10
4.84056
 20
3.72993
 30
0.0
 40
0.0138897
 41
0.0138897
  0
VERTEX
  8
0
 10
4.84462
 20
3.8125
 30
0.0
 40
0.0138897
 41
0.0138897
  0
VERTEX
  8
0
 10
4.85107
 20
3.89501
 30
0.0
 40
0.0138897
 41
0.0138897
  0
VERTEX
  8
0
 10
4.86133
 20
3.97732
 30
0.0
 40
0.0138897
 41
0.0138897
  0
VERTEX
  8
0
 10
4.87701
 20
4.05935
 30
0.0
 40
0.0138897
 41
0.0138897
  0
VERTEX
  8
0
 10
4.89953
 20
4.14106
 30
0.0
 40
0.0138897
 41
0.0138897
  0
VERTEX
  8
0
 10
4.93044
 20
4.22233
 30
0.0
 40
0.0138897
 41
0.0138897
  0
VERTEX
  8
0
 10
4.97131
 20
4.30311
 30
0.0
 40
0.0138897
 41
0.0138897
  0
VERTEX
  8
0
 10
5.02354
 20
4.38336
 30
0.0
 40
0.0138897
 41
0.0138897
  0
VERTEX
  8
0
 10
5.08871
 20
4.46289
 30
0.0
 40
0.0138897
 41
0.0138897
  0
VERTEX
  8
0
 10
5.16824
 20
4.54167
 30
0.0
 40
0.0138897
 41
0.0138897
  0
VERTEX
  8
0
 10
5.26378
 20
4.61968
 30
0.0
 40
0.0138897
 41
0.0138897
  0
VERTEX
  8
0
 10
5.37668
 20
4.69678
 30
0.0
 40
0.0138897
 41
0.0138897
  0
VERTEX
  8
0
 10
5.50857
 20
4.77285
 30
0.0
 40
0.0138897
 41
0.0138897
  0
VERTEX
  8
0
 10
5.66086
 20
4.84787
 30
0.0
 40
0.0138897
 41
0.0138897
  0
VERTEX
  8
0
 10
5.83513
 20
4.92182
 30
0.0
 40
0.0138897
 41
0.0138897
  0
VERTEX
  8
0
 10
6.03288
 20
4.99447
 30
0.0
 40
0.0138897
 41
0.0138897
  0
VERTEX
  8
0
 10
5.53288
 20
5.24447
 30
0.0
 40
0.0138897
 41
0.0138897
  0
VERTEX
  8
0
 10
5.33513
 20
5.17176
 30
0.0
 40
0.0138897
 41
0.0138897
  0
VERTEX
  8
0
 10
5.16086
 20
5.09787
 30
0.0
 40
0.0138897
 41
0.0138897
  0
VERTEX
  8
0
 10
5.00857
 20
5.02285
 30
0.0
 40
0.0138897
 41
0.0138897
  0
VERTEX
  8
0
 10
4.87668
 20
4.94678
 30
0.0
 40
0.0138897
 41
0.0138897
  0
VERTEX
  8
0
 10
4.76378
 20
4.86968
 30
0.0
 40
0.0138897
 41
0.0138897
  0
VERTEX
  8
0
 10
4.66824
 20
4.79167
 30
0.0
 40
0.0138897
 41
0.0138897
  0
VERTEX
  8
0
 10
4.58871
 20
4.71289
 30
0.0
 40
0.0138897
 41
0.0138897
  0
VERTEX
  8
0
 10
4.52354
 20
4.63336
 30
0.0
 40
0.0138897
 41
0.0138897
  0
VERTEX
  8
0
 10
4.47131
 20
4.55311
 30
0.0
 40
0.0138897
 41
0.0138897
  0
VERTEX
  8
0
 10
4.43044
 20
4.47233
 30
0.0
 40
0.0138897
 41
0.0138897
  0
VERTEX
  8
0
 10
4.39953
 20
4.39106
 30
0.0
 40
0.0138897
 41
0.0138897
  0
VERTEX
  8
0
 10
4.37701
 20
4.30935
 30
0.0
 40
0.0138897
 41
0.0138897
  0
VERTEX
  8
0
 10
4.36133
 20
4.22732
 30
0.0
 40
0.0138897
 41
0.0138897
  0
VERTEX
  8
0
 10
4.35107
 20
4.14501
 30
0.0
 40
0.0138897
 41
0.0138897
  0
VERTEX
  8
0
 10
4.34462
 20
4.0625
 30
0.0
 40
0.0138897
 41
0.0138897
  0
VERTEX
  8
0
 10
4.34056
 20
3.97993
 30
0.0
 40
0.0138897
 41
0.0138897
  0
VERTEX
  8
0
 10
4.3374
 20
3.89735
 30
0.0
 40
0.0138897
 41
0.0138897
  0
VERTEX
  8
0
 10
4.33356
 20
3.81483
 30
0.0
 40
0.0138897
 41
0.0138897
  0
VERTEX
  8
0
 10
4.32753
 20
3.73242
 30
0.0
 40
0.0138897
 41
0.0138897
  0
VERTEX
  8
0
 10
4.31787
 20
3.65022
 30
0.0
 40
0.0138897
 41
0.0138897
  0
VERTEX
  8
0
 10
4.303
 20
3.56836
 30
0.0
 40
0.0138897
 41
0.0138897
  0
VERTEX
  8
0
 10
4.28147
 20
3.48687
 30
0.0
 40
0.0138897
 41
0.0138897
  0
VERTEX
  8
0
 10
4.25179
 20
3.40582
 30
0.0
 40
0.0138897
 41
0.0138897
  0
VERTEX
  8
0
 10
4.2124
 20
3.32536
 30
0.0
 40
0.0138897
 41
0.0138897
  0
VERTEX
  8
0
 10
4.16178
 20
3.2455
 30
0.0
 40
0.0138897
 41
0.0138897
  0
VERTEX
  8
0
 10
4.09847
 20
3.16635
 30
0.0
 40
0.0138897
 41
0.0138897
  0
VERTEX
  8
0
 10
4.02094
 20
3.08794
 30
0.0
 40
0.0138897
 41
0.0138897
  0
VERTEX
  8
0
 10
3.92768
 20
3.01047
 30
0.0
 40
0.0138897
 41
0.0138897
  0
VERTEX
  8
0
 10
3.81722
 20
2.93386
 30
0.0
 40
0.0138897
 41
0.0138897
  0
VERTEX
  8
0
 10
3.68804
 20
2.85835
 30
0.0
 40
0.0138897
 41
0.0138897
  0
VERTEX
  8
0
 10
3.53857
 20
2.7839
 30
0.0
 40
0.0138897
 41
0.0138897
  0
VERTEX
  8
0
 10
3.3674
 20
2.71067
 30
0.0
 40
0.0138897
 41
0.0138897
  0
SEQEND
 8
0
  0
POLYLINE
  8
0
 62
     254
 66
     1
 10
0
 20
0
 30
0.0
 70
     1
 40
0
 41
0
  0
VERTEX
  8
0
 10
5.53288
 20
5.24447
 30
0.0
 40
0
 41
0
  0
VERTEX
  8
0
 10
6.03288
 20
4.99447
 30
0.0
 40
0
 41
0
  0
VERTEX
  8
0
 10
6.03288
 20
5.40744
 30
0.0
 40
0
 41
0
  0
VERTEX
  8
0
 10
5.53288
 20
5.65744
 30
0.0
 40
0
 41
0
  0
VERTEX
  8
0
 10
5.53288
 20
5.24447
 30
0.0
 40
0
 41
0
  0
SEQEND
 8
0
  0
POLYLINE
  8
0
 62
     0
 66
     1
 10
0
 20
0
 30
0.0
 70
     1
 40
1.00006
 41
1.00006
  0
VERTEX
  8
0
 10
5.53288
 20
5.24447
 30
0.0
 40
0.0138897
 41
0.0138897
  0
VERTEX
  8
0
 10
6.03288
 20
4.99447
 30
0.0
 40
0.0138897
 41
0.0138897
  0
VERTEX
  8
0
 10
6.03288
 20
5.40744
 30
0.0
 40
0.0138897
 41
0.0138897
  0
VERTEX
  8
0
 10
5.53288
 20
5.65744
 30
0.0
 40
0.0138897
 41
0.0138897
  0
VERTEX
  8
0
 10
5.53288
 20
5.24447
 30
0.0
 40
0.0138897
 41
0.0138897
  0
SEQEND
 8
0
  0
POLYLINE
  8
0
 62
     251
 66
     1
 10
0
 20
0
 30
0.0
 70
     1
 40
0
 41
0
  0
VERTEX
  8
0
 10
5.53288
 20
5.65744
 30
0.0
 40
0
 41
0
  0
VERTEX
  8
0
 10
6.03288
 20
5.40744
 30
0.0
 40
0
 41
0
  0
VERTEX
  8
0
 10
6.06608
 20
5.41108
 30
0.0
 40
0
 41
0
  0
VERTEX
  8
0
 10
5.56608
 20
5.66108
 30
0.0
 40
0
 41
0
  0
VERTEX
  8
0
 10
5.53288
 20
5.65744
 30
0.0
 40
0
 41
0
  0
SEQEND
 8
0
  0
POLYLINE
  8
0
 62
     252
 66
     1
 10
0
 20
0
 30
0.0
 70
     1
 40
0
 41
0
  0
VERTEX
  8
0
 10
5.56608
 20
5.66108
 30
0.0
 40
0
 41
0
  0
VERTEX
  8
0
 10
6.06608
 20
5.41108
 30
0.0
 40
0
 41
0
  0
VERTEX
  8
0
 10
6.09788
 20
5.41564
 30
0.0
 40
0
 41
0
  0
VERTEX
  8
0
 10
5.59788
 20
5.66564
 30
0.0
 40
0
 41
0
  0
VERTEX
  8
0
 10
5.56608
 20
5.66108
 30
0.0
 40
0
 41
0
  0
SEQEND
 8
0
  0
POLYLINE
  8
0
 62
     252
 66
     1
 10
0
 20
0
 30
0.0
 70
     1
 40
0
 41
0
  0
VERTEX
  8
0
 10
5.59788
 20
5.66564
 30
0.0
 40
0
 41
0
  0
VERTEX
  8
0
 10
6.09788
 20
5.41564
 30
0.0
 40
0
 41
0
  0
VERTEX
  8
0
 10
6.12825
 20
5.42117
 30
0.0
 40
0
 41
0
  0
VERTEX
  8
0
 10
5.62825
 20
5.67111
 30
0.0
 40
0
 41
0
  0
VERTEX
  8
0
 10
5.59788
 20
5.66564
 30
0.0
 40
0
 41
0
  0
SEQEND
 8
0
  0
POLYLINE
  8
0
 62
     252
 66
     1
 10
0
 20
0
 30
0.0
 70
     1
 40
0
 41
0
  0
VERTEX
  8
0
 10
5.62825
 20
5.67111
 30
0.0
 40
0
 41
0
  0
VERTEX
  8
0
 10
6.12825
 20
5.42117
 30
0.0
 40
0
 41
0
  0
VERTEX
  8
0
 10
6.15717
 20
5.42757
 30
0.0
 40
0
 41
0
  0
VERTEX
  8
0
 10
5.65717
 20
5.67757
 30
0.0
 40
0
 41
0
  0
VERTEX
  8
0
 10
5.62825
 20
5.67111
 30
0.0
 40
0
 41
0
  0
SEQEND
 8
0
  0
POLYLINE
  8
0
 62
     252
 66
     1
 10
0
 20
0
 30
0.0
 70
     1
 40
0
 41
0
  0
VERTEX
  8
0
 10
5.65717
 20
5.67757
 30
0.0
 40
0
 41
0
  0
VERTEX
  8
0
 10
6.15717
 20
5.42757
 30
0.0
 40
0
 41
0
  0
VERTEX
  8
0
 10
6.18468
 20
5.4349
 30
0.0
 40
0
 41
0
  0
VERTEX
  8
0
 10
5.68468
 20
5.6849
 30
0.0
 40
0
 41
0
  0
VERTEX
  8
0
 10
5.65717
 20
5.67757
 30
0.0
 40
0
 41
0
  0
SEQEND
 8
0
  0
POLYLINE
  8
0
 62
     9
 66
     1
 10
0
 20
0
 30
0.0
 70
     1
 40
0
 41
0
  0
VERTEX
  8
0
 10
5.68468
 20
5.6849
 30
0.0
 40
0
 41
0
  0
VERTEX
  8
0
 10
6.18468
 20
5.4349
 30
0.0
 40
0
 41
0
  0
VERTEX
  8
0
 10
6.21078
 20
5.44308
 30
0.0
 40
0
 41
0
  0
VERTEX
  8
0
 10
5.71078
 20
5.69308
 30
0.0
 40
0
 41
0
  0
VERTEX
  8
0
 10
5.68468
 20
5.6849
 30
0.0
 40
0
 41
0
  0
SEQEND
 8
0
  0
POLYLINE
  8
0
 62
     253
 66
     1
 10
0
 20
0
 30
0.0
 70
     1
 40
0
 41
0
  0
VERTEX
  8
0
 10
5.71078
 20
5.69308
 30
0.0
 40
0
 41
0
  0
VERTEX
  8
0
 10
6.21078
 20
5.44308
 30
0.0
 40
0
 41
0
  0
VERTEX
  8
0
 10
6.23551
 20
5.45221
 30
0.0
 40
0
 41
0
  0
VERTEX
  8
0
 10
5.73551
 20
5.70221
 30
0.0
 40
0
 41
0
  0
VERTEX
  8
0
 10
5.71078
 20
5.69308
 30
0.0
 40
0
 41
0
  0
SEQEND
 8
0
  0
POLYLINE
  8
0
 62
     253
 66
     1
 10
0
 20
0
 30
0.0
 70
     1
 40
0
 41
0
  0
VERTEX
  8
0
 10
5.73551
 20
5.70221
 30
0.0
 40
0
 41
0
  0
VERTEX
  8
0
 10
6.23551
 20
5.45221
 30
0.0
 40
0
 41
0
  0
VERTEX
  8
0
 10
6.25885
 20
5.46218
 30
0.0
 40
0
 41
0
  0
VERTEX
  8
0
 10
5.75885
 20
5.71218
 30
0.0
 40
0
 41
0
  0
VERTEX
  8
0
 10
5.73551
 20
5.70221
 30
0.0
 40
0
 41
0
  0
SEQEND
 8
0
  0
POLYLINE
  8
0
 62
     253
 66
     1
 10
0
 20
0
 30
0.0
 70
     1
 40
0
 41
0
  0
VERTEX
  8
0
 10
5.75885
 20
5.71218
 30
0.0
 40
0
 41
0
  0
VERTEX
  8
0
 10
6.25885
 20
5.46218
 30
0.0
 40
0
 41
0
  0
VERTEX
  8
0
 10
6.28082
 20
5.47299
 30
0.0
 40
0
 41
0
  0
VERTEX
  8
0
 10
5.78082
 20
5.72299
 30
0.0
 40
0
 41
0
  0
VERTEX
  8
0
 10
5.75885
 20
5.71218
 30
0.0
 40
0
 41
0
  0
SEQEND
 8
0
  0
POLYLINE
  8
0
 62
     253
 66
     1
 10
0
 20
0
 30
0.0
 70
     1
 40
0
 41
0
  0
VERTEX
  8
0
 10
5.78082
 20
5.72299
 30
0.0
 40
0
 41
0
  0
VERTEX
  8
0
 10
6.28082
 20
5.47299
 30
0.0
 40
0
 41
0
  0
VERTEX
  8
0
 10
6.30149
 20
5.48469
 30
0.0
 40
0
 41
0
  0
VERTEX
  8
0
 10
5.80149
 20
5.73469
 30
0.0
 40
0
 41
0
  0
VERTEX
  8
0
 10
5.78082
 20
5.72299
 30
0.0
 40
0
 41
0
  0
SEQEND
 8
0
  0
POLYLINE
  8
0
 62
     33
 66
     1
 10
0
 20
0
 30
0.0
 70
     1
 40
0
 41
0
  0
VERTEX
  8
0
 10
5.80149
 20
5.73469
 30
0.0
 40
0
 41
0
  0
VERTEX
  8
0
 10
6.30149
 20
5.48469
 30
0.0
 40
0
 41
0
  0
VERTEX
  8
0
 10
6.32081
 20
5.49724
 30
0.0
 40
0
 41
0
  0
VERTEX
  8
0
 10
5.82081
 20
5.74724
 30
0.0
 40
0
 41
0
  0
VERTEX
  8
0
 10
5.80149
 20
5.73469
 30
0.0
 40
0
 41
0
  0
SEQEND
 8
0
  0
POLYLINE
  8
0
 62
     254
 66
     1
 10
0
 20
0
 30
0.0
 70
     1
 40
0
 41
0
  0
VERTEX
  8
0
 10
5.82081
 20
5.74724
 30
0.0
 40
0
 41
0
  0
VERTEX
  8
0
 10
6.32081
 20
5.49724
 30
0.0
 40
0
 41
0
  0
VERTEX
  8
0
 10
6.33882
 20
5.51064
 30
0.0
 40
0
 41
0
  0
VERTEX
  8
0
 10
5.83882
 20
5.76064
 30
0.0
 40
0
 41
0
  0
VERTEX
  8
0
 10
5.82081
 20
5.74724
 30
0.0
 40
0
 41
0
  0
SEQEND
 8
0
  0
POLYLINE
  8
0
 62
     254
 66
     1
 10
0
 20
0
 30
0.0
 70
     1
 40
0
 41
0
  0
VERTEX
  8
0
 10
5.83882
 20
5.76064
 30
0.0
 40
0
 41
0
  0
VERTEX
  8
0
 10
6.33882
 20
5.51064
 30
0.0
 40
0
 41
0
  0
VERTEX
  8
0
 10
6.35553
 20
5.5249
 30
0.0
 40
0
 41
0
  0
VERTEX
  8
0
 10
5.85553
 20
5.77485
 30
0.0
 40
0
 41
0
  0
VERTEX
  8
0
 10
5.83882
 20
5.76064
 30
0.0
 40
0
 41
0
  0
SEQEND
 8
0
  0
POLYLINE
  8
0
 62
     254
 66
     1
 10
0
 20
0
 30
0.0
 70
     1
 40
0
 41
0
  0
VERTEX
  8
0
 10
5.85553
 20
5.77485
 30
0.0
 40
0
 41
0
  0
VERTEX
  8
0
 10
6.35553
 20
5.5249
 30
0.0
 40
0
 41
0
  0
VERTEX
  8
0
 10
6.37093
 20
5.53993
 30
0.0
 40
0
 41
0
  0
VERTEX
  8
0
 10
5.87093
 20
5.78993
 30
0.0
 40
0
 41
0
  0
VERTEX
  8
0
 10
5.85553
 20
5.77485
 30
0.0
 40
0
 41
0
  0
SEQEND
 8
0
  0
POLYLINE
  8
0
 62
     254
 66
     1
 10
0
 20
0
 30
0.0
 70
     1
 40
0
 41
0
  0
VERTEX
  8
0
 10
5.87093
 20
5.78993
 30
0.0
 40
0
 41
0
  0
VERTEX
  8
0
 10
6.37093
 20
5.53993
 30
0.0
 40
0
 41
0
  0
VERTEX
  8
0
 10
6.3851
 20
5.55578
 30
0.0
 40
0
 41
0
  0
VERTEX
  8
0
 10
5.8851
 20
5.80578
 30
0.0
 40
0
 41
0
  0
VERTEX
  8
0
 10
5.87093
 20
5.78993
 30
0.0
 40
0
 41
0
  0
SEQEND
 8
0
  0
POLYLINE
  8
0
 62
     254
 66
     1
 10
0
 20
0
 30
0.0
 70
     1
 40
0
 41
0
  0
VERTEX
  8
0
 10
5.8851
 20
5.80578
 30
0.0
 40
0
 41
0
  0
VERTEX
  8
0
 10
6.3851
 20
5.55578
 30
0.0
 40
0
 41
0
  0
VERTEX
  8
0
 10
6.398
 20
5.57243
 30
0.0
 40
0
 41
0
  0
VERTEX
  8
0
 10
5.898
 20
5.82243
 30
0.0
 40
0
 41
0
  0
VERTEX
  8
0
 10
5.8851
 20
5.80578
 30
0.0
 40
0
 41
0
  0
SEQEND
 8
0
  0
POLYLINE
  8
0
 62
     254
 66
     1
 10
0
 20
0
 30
0.0
 70
     1
 40
0
 41
0
  0
VERTEX
  8
0
 10
5.898
 20
5.82243
 30
0.0
 40
0
 41
0
  0
VERTEX
  8
0
 10
6.398
 20
5.57243
 30
0.0
 40
0
 41
0
  0
VERTEX
  8
0
 10
6.40967
 20
5.5899
 30
0.0
 40
0
 41
0
  0
VERTEX
  8
0
 10
5.90967
 20
5.8399
 30
0.0
 40
0
 41
0
  0
VERTEX
  8
0
 10
5.898
 20
5.82243
 30
0.0
 40
0
 41
0
  0
SEQEND
 8
0
  0
POLYLINE
  8
0
 62
     254
 66
     1
 10
0
 20
0
 30
0.0
 70
     1
 40
0
 41
0
  0
VERTEX
  8
0
 10
5.90967
 20
5.8399
 30
0.0
 40
0
 41
0
  0
VERTEX
  8
0
 10
6.40967
 20
5.5899
 30
0.0
 40
0
 41
0
  0
VERTEX
  8
0
 10
6.42008
 20
5.60813
 30
0.0
 40
0
 41
0
  0
VERTEX
  8
0
 10
5.92008
 20
5.85813
 30
0.0
 40
0
 41
0
  0
VERTEX
  8
0
 10
5.90967
 20
5.8399
 30
0.0
 40
0
 41
0
  0
SEQEND
 8
0
  0
POLYLINE
  8
0
 62
     254
 66
     1
 10
0
 20
0
 30
0.0
 70
     1
 40
0
 41
0
  0
VERTEX
  8
0
 10
5.92008
 20
5.85813
 30
0.0
 40
0
 41
0
  0
VERTEX
  8
0
 10
6.42008
 20
5.60813
 30
0.0
 40
0
 41
0
  0
VERTEX
  8
0
 10
6.42931
 20
5.62717
 30
0.0
 40
0
 41
0
  0
VERTEX
  8
0
 10
5.92931
 20
5.87717
 30
0.0
 40
0
 41
0
  0
VERTEX
  8
0
 10
5.92008
 20
5.85813
 30
0.0
 40
0
 41
0
  0
SEQEND
 8
0
  0
POLYLINE
  8
0
 62
     254
 66
     1
 10
0
 20
0
 30
0.0
 70
     1
 40
0
 41
0
  0
VERTEX
  8
0
 10
5.92931
 20
5.87717
 30
0.0
 40
0
 41
0
  0
VERTEX
  8
0
 10
6.42931
 20
5.62717
 30
0.0
 40
0
 41
0
  0
VERTEX
  8
0
 10
6.43733
 20
5.64692
 30
0.0
 40
0
 41
0
  0
VERTEX
  8
0
 10
5.93733
 20
5.89692
 30
0.0
 40
0
 41
0
  0
VERTEX
  8
0
 10
5.92931
 20
5.87717
 30
0.0
 40
0
 41
0
  0
SEQEND
 8
0
  0
POLYLINE
  8
0
 62
     254
 66
     1
 10
0
 20
0
 30
0.0
 70
     1
 40
0
 41
0
  0
VERTEX
  8
0
 10
5.93733
 20
5.89692
 30
0.0
 40
0
 41
0
  0
VERTEX
  8
0
 10
6.43733
 20
5.64692
 30
0.0
 40
0
 41
0
  0
VERTEX
  8
0
 10
6.44417
 20
5.66749
 30
0.0
 40
0
 41
0
  0
VERTEX
  8
0
 10
5.94417
 20
5.91749
 30
0.0
 40
0
 41
0
  0
VERTEX
  8
0
 10
5.93733
 20
5.89692
 30
0.0
 40
0
 41
0
  0
SEQEND
 8
0
  0
POLYLINE
  8
0
 62
     254
 66
     1
 10
0
 20
0
 30
0.0
 70
     1
 40
0
 41
0
  0
VERTEX
  8
0
 10
5.94417
 20
5.91749
 30
0.0
 40
0
 41
0
  0
VERTEX
  8
0
 10
6.44417
 20
5.66749
 30
0.0
 40
0
 41
0
  0
VERTEX
  8
0
 10
6.44987
 20
5.68875
 30
0.0
 40
0
 41
0
  0
VERTEX
  8
0
 10
5.94987
 20
5.93875
 30
0.0
 40
0
 41
0
  0
VERTEX
  8
0
 10
5.94417
 20
5.91749
 30
0.0
 40
0
 41
0
  0
SEQEND
 8
0
  0
POLYLINE
  8
0
 62
     254
 66
     1
 10
0
 20
0
 30
0.0
 70
     1
 40
0
 41
0
  0
VERTEX
  8
0
 10
5.94987
 20
5.93875
 30
0.0
 40
0
 41
0
  0
VERTEX
  8
0
 10
6.44987
 20
5.68875
 30
0.0
 40
0
 41
0
  0
VERTEX
  8
0
 10
6.45437
 20
5.71078
 30
0.0
 40
0
 41
0
  0
VERTEX
  8
0
 10
5.95437
 20
5.96078
 30
0.0
 40
0
 41
0
  0
VERTEX
  8
0
 10
5.94987
 20
5.93875
 30
0.0
 40
0
 41
0
  0
SEQEND
 8
0
  0
POLYLINE
  8
0
 62
     254
 66
     1
 10
0
 20
0
 30
0.0
 70
     1
 40
0
 41
0
  0
VERTEX
  8
0
 10
5.95437
 20
5.96078
 30
0.0
 40
0
 41
0
  0
VERTEX
  8
0
 10
6.45437
 20
5.71078
 30
0.0
 40
0
 41
0
  0
VERTEX
  8
0
 10
6.45779
 20
5.73356
 30
0.0
 40
0
 41
0
  0
VERTEX
  8
0
 10
5.95779
 20
5.98356
 30
0.0
 40
0
 41
0
  0
VERTEX
  8
0
 10
5.95437
 20
5.96078
 30
0.0
 40
0
 41
0
  0
SEQEND
 8
0
  0
POLYLINE
  8
0
 62
     254
 66
     1
 10
0
 20
0
 30
0.0
 70
     1
 40
0
 41
0
  0
VERTEX
  8
0
 10
5.95779
 20
5.98356
 30
0.0
 40
0
 41
0
  0
VERTEX
  8
0
 10
6.45779
 20
5.73356
 30
0.0
 40
0
 41
0
  0
VERTEX
  8
0
 10
6.46007
 20
5.757
 30
0.0
 40
0
 41
0
  0
VERTEX
  8
0
 10
5.96007
 20
6.007
 30
0.0
 40
0
 41
0
  0
VERTEX
  8
0
 10
5.95779
 20
5.98356
 30
0.0
 40
0
 41
0
  0
SEQEND
 8
0
  0
POLYLINE
  8
0
 62
     254
 66
     1
 10
0
 20
0
 30
0.0
 70
     1
 40
0
 41
0
  0
VERTEX
  8
0
 10
5.96007
 20
6.007
 30
0.0
 40
0
 41
0
  0
VERTEX
  8
0
 10
6.46007
 20
5.757
 30
0.0
 40
0
 41
0
  0
VERTEX
  8
0
 10
6.46121
 20
5.78119
 30
0.0
 40
0
 41
0
  0
VERTEX
  8
0
 10
5.96121
 20
6.03119
 30
0.0
 40
0
 41
0
  0
VERTEX
  8
0
 10
5.96007
 20
6.007
 30
0.0
 40
0
 41
0
  0
SEQEND
 8
0
  0
POLYLINE
  8
0
 62
     254
 66
     1
 10
0
 20
0
 30
0.0
 70
     1
 40
0
 41
0
  0
VERTEX
  8
0
 10
5.96121
 20
6.03119
 30
0.0
 40
0
 41
0
  0
VERTEX
  8
0
 10
6.46121
 20
5.78119
 30
0.0
 40
0
 41
0
  0
VERTEX
  8
0
 10
6.46126
 20
5.8061
 30
0.0
 40
0
 41
0
  0
VERTEX
  8
0
 10
5.96126
 20
6.05604
 30
0.0
 40
0
 41
0
  0
VERTEX
  8
0
 10
5.96121
 20
6.03119
 30
0.0
 40
0
 41
0
  0
SEQEND
 8
0
  0
POLYLINE
  8
0
 62
     254
 66
     1
 10
0
 20
0
 30
0.0
 70
     1
 40
0
 41
0
  0
VERTEX
  8
0
 10
5.96126
 20
6.05604
 30
0.0
 40
0
 41
0
  0
VERTEX
  8
0
 10
6.46126
 20
5.8061
 30
0.0
 40
0
 41
0
  0
VERTEX
  8
0
 10
6.46024
 20
5.83165
 30
0.0
 40
0
 41
0
  0
VERTEX
  8
0
 10
5.96024
 20
6.08165
 30
0.0
 40
0
 41
0
  0
VERTEX
  8
0
 10
5.96126
 20
6.05604
 30
0.0
 40
0
 41
0
  0
SEQEND
 8
0
  0
POLYLINE
  8
0
 62
     254
 66
     1
 10
0
 20
0
 30
0.0
 70
     1
 40
0
 41
0
  0
VERTEX
  8
0
 10
5.96024
 20
6.08165
 30
0.0
 40
0
 41
0
  0
VERTEX
  8
0
 10
6.46024
 20
5.83165
 30
0.0
 40
0
 41
0
  0
VERTEX
  8
0
 10
6.45817
 20
5.85792
 30
0.0
 40
0
 41
0
  0
VERTEX
  8
0
 10
5.95817
 20
6.10792
 30
0.0
 40
0
 41
0
  0
VERTEX
  8
0
 10
5.96024
 20
6.08165
 30
0.0
 40
0
 41
0
  0
SEQEND
 8
0
  0
POLYLINE
  8
0
 62
     254
 66
     1
 10
0
 20
0
 30
0.0
 70
     1
 40
0
 41
0
  0
VERTEX
  8
0
 10
5.95817
 20
6.10792
 30
0.0
 40
0
 41
0
  0
VERTEX
  8
0
 10
6.45817
 20
5.85792
 30
0.0
 40
0
 41
0
  0
VERTEX
  8
0
 10
6.45503
 20
5.88482
 30
0.0
 40
0
 41
0
  0
VERTEX
  8
0
 10
5.95503
 20
6.13482
 30
0.0
 40
0
 41
0
  0
VERTEX
  8
0
 10
5.95817
 20
6.10792
 30
0.0
 40
0
 41
0
  0
SEQEND
 8
0
  0
POLYLINE
  8
0
 62
     254
 66
     1
 10
0
 20
0
 30
0.0
 70
     1
 40
0
 41
0
  0
VERTEX
  8
0
 10
5.95503
 20
6.13482
 30
0.0
 40
0
 41
0
  0
VERTEX
  8
0
 10
6.45503
 20
5.88482
 30
0.0
 40
0
 41
0
  0
VERTEX
  8
0
 10
6.45085
 20
5.91243
 30
0.0
 40
0
 41
0
  0
VERTEX
  8
0
 10
5.95085
 20
6.16243
 30
0.0
 40
0
 41
0
  0
VERTEX
  8
0
 10
5.95503
 20
6.13482
 30
0.0
 40
0
 41
0
  0
SEQEND
 8
0
  0
POLYLINE
  8
0
 62
     254
 66
     1
 10
0
 20
0
 30
0.0
 70
     1
 40
0
 41
0
  0
VERTEX
  8
0
 10
5.95085
 20
6.16243
 30
0.0
 40
0
 41
0
  0
VERTEX
  8
0
 10
6.45085
 20
5.91243
 30
0.0
 40
0
 41
0
  0
VERTEX
  8
0
 10
6.44564
 20
5.94069
 30
0.0
 40
0
 41
0
  0
VERTEX
  8
0
 10
5.94564
 20
6.19069
 30
0.0
 40
0
 41
0
  0
VERTEX
  8
0
 10
5.95085
 20
6.16243
 30
0.0
 40
0
 41
0
  0
SEQEND
 8
0
  0
POLYLINE
  8
0
 62
     0
 66
     1
 10
0
 20
0
 30
0.0
 70
     1
 40
1.00006
 41
1.00006
  0
VERTEX
  8
0
 10
5.53288
 20
5.65744
 30
0.0
 40
0.0138897
 41
0.0138897
  0
VERTEX
  8
0
 10
6.03288
 20
5.40744
 30
0.0
 40
0.0138897
 41
0.0138897
  0
VERTEX
  8
0
 10
6.06608
 20
5.41108
 30
0.0
 40
0.0138897
 41
0.0138897
  0
VERTEX
  8
0
 10
6.09788
 20
5.41564
 30
0.0
 40
0.0138897
 41
0.0138897
  0
VERTEX
  8
0
 10
6.12825
 20
5.42117
 30
0.0
 40
0.0138897
 41
0.0138897
  0
VERTEX
  8
0
 10
6.15717
 20
5.42757
 30
0.0
 40
0.0138897
 41
0.0138897
  0
VERTEX
  8
0
 10
6.18468
 20
5.4349
 30
0.0
 40
0.0138897
 41
0.0138897
  0
VERTEX
  8
0
 10
6.21078
 20
5.44308
 30
0.0
 40
0.0138897
 41
0.0138897
  0
VERTEX
  8
0
 10
6.23551
 20
5.45221
 30
0.0
 40
0.0138897
 41
0.0138897
  0
VERTEX
  8
0
 10
6.25885
 20
5.46218
 30
0.0
 40
0.0138897
 41
0.0138897
  0
VERTEX
  8
0
 10
6.28082
 20
5.47299
 30
0.0
 40
0.0138897
 41
0.0138897
  0
VERTEX
  8
0
 10
6.30149
 20
5.48469
 30
0.0
 40
0.0138897
 41
0.0138897
  0
VERTEX
  8
0
 10
6.32081
 20
5.49724
 30
0.0
 40
0.0138897
 41
0.0138897
  0
VERTEX
  8
0
 10
6.33882
 20
5.51064
 30
0.0
 40
0.0138897
 41
0.0138897
  0
VERTEX
  8
0
 10
6.35553
 20
5.5249
 30
0.0
 40
0.0138897
 41
0.0138897
  0
VERTEX
  8
0
 10
6.37093
 20
5.53993
 30
0.0
 40
0.0138897
 41
0.0138897
  0
VERTEX
  8
0
 10
6.3851
 20
5.55578
 30
0.0
 40
0.0138897
 41
0.0138897
  0
VERTEX
  8
0
 10
6.398
 20
5.57243
 30
0.0
 40
0.0138897
 41
0.0138897
  0
VERTEX
  8
0
 10
6.40967
 20
5.5899
 30
0.0
 40
0.0138897
 41
0.0138897
  0
VERTEX
  8
0
 10
6.42008
 20
5.60813
 30
0.0
 40
0.0138897
 41
0.0138897
  0
VERTEX
  8
0
 10
6.42931
 20
5.62717
 30
0.0
 40
0.0138897
 41
0.0138897
  0
VERTEX
  8
0
 10
6.43733
 20
5.64692
 30
0.0
 40
0.0138897
 41
0.0138897
  0
VERTEX
  8
0
 10
6.44417
 20
5.66749
 30
0.0
 40
0.0138897
 41
0.0138897
  0
VERTEX
  8
0
 10
6.44987
 20
5.68875
 30
0.0
 40
0.0138897
 41
0.0138897
  0
VERTEX
  8
0
 10
6.45437
 20
5.71078
 30
0.0
 40
0.0138897
 41
0.0138897
  0
VERTEX
  8
0
 10
6.45779
 20
5.73356
 30
0.0
 40
0.0138897
 41
0.0138897
  0
VERTEX
  8
0
 10
6.46007
 20
5.757
 30
0.0
 40
0.0138897
 41
0.0138897
  0
VERTEX
  8
0
 10
6.46121
 20
5.78119
 30
0.0
 40
0.0138897
 41
0.0138897
  0
VERTEX
  8
0
 10
6.46126
 20
5.8061
 30
0.0
 40
0.0138897
 41
0.0138897
  0
VERTEX
  8
0
 10
6.46024
 20
5.83165
 30
0.0
 40
0.0138897
 41
0.0138897
  0
VERTEX
  8
0
 10
6.45817
 20
5.85792
 30
0.0
 40
0.0138897
 41
0.0138897
  0
VERTEX
  8
0
 10
6.45503
 20
5.88482
 30
0.0
 40
0.0138897
 41
0.0138897
  0
VERTEX
  8
0
 10
6.45085
 20
5.91243
 30
0.0
 40
0.0138897
 41
0.0138897
  0
VERTEX
  8
0
 10
6.44564
 20
5.94069
 30
0.0
 40
0.0138897
 41
0.0138897
  0
VERTEX
  8
0
 10
5.94564
 20
6.19069
 30
0.0
 40
0.0138897
 41
0.0138897
  0
VERTEX
  8
0
 10
5.95085
 20
6.16243
 30
0.0
 40
0.0138897
 41
0.0138897
  0
VERTEX
  8
0
 10
5.95503
 20
6.13482
 30
0.0
 40
0.0138897
 41
0.0138897
  0
VERTEX
  8
0
 10
5.95817
 20
6.10792
 30
0.0
 40
0.0138897
 41
0.0138897
  0
VERTEX
  8
0
 10
5.96024
 20
6.08165
 30
0.0
 40
0.0138897
 41
0.0138897
  0
VERTEX
  8
0
 10
5.96126
 20
6.05604
 30
0.0
 40
0.0138897
 41
0.0138897
  0
VERTEX
  8
0
 10
5.96121
 20
6.03119
 30
0.0
 40
0.0138897
 41
0.0138897
  0
VERTEX
  8
0
 10
5.96007
 20
6.007
 30
0.0
 40
0.0138897
 41
0.0138897
  0
VERTEX
  8
0
 10
5.95779
 20
5.98356
 30
0.0
 40
0.0138897
 41
0.0138897
  0
VERTEX
  8
0
 10
5.95437
 20
5.96078
 30
0.0
 40
0.0138897
 41
0.0138897
  0
VERTEX
  8
0
 10
5.94987
 20
5.93875
 30
0.0
 40
0.0138897
 41
0.0138897
  0
VERTEX
  8
0
 10
5.94417
 20
5.91749
 30
0.0
 40
0.0138897
 41
0.0138897
  0
VERTEX
  8
0
 10
5.93733
 20
5.89692
 30
0.0
 40
0.0138897
 41
0.0138897
  0
VERTEX
  8
0
 10
5.92931
 20
5.87717
 30
0.0
 40
0.0138897
 41
0.0138897
  0
VERTEX
  8
0
 10
5.92008
 20
5.85813
 30
0.0
 40
0.0138897
 41
0.0138897
  0
VERTEX
  8
0
 10
5.90967
 20
5.8399
 30
0.0
 40
0.0138897
 41
0.0138897
  0
VERTEX
  8
0
 10
5.898
 20
5.82243
 30
0.0
 40
0.0138897
 41
0.0138897
  0
VERTEX
  8
0
 10
5.8851
 20
5.80578
 30
0.0
 40
0.0138897
 41
0.0138897
  0
VERTEX
  8
0
 10
5.87093
 20
5.78993
 30
0.0
 40
0.0138897
 41
0.0138897
  0
VERTEX
  8
0
 10
5.85553
 20
5.77485
 30
0.0
 40
0.0138897
 41
0.0138897
  0
VERTEX
  8
0
 10
5.83882
 20
5.76064
 30
0.0
 40
0.0138897
 41
0.0138897
  0
VERTEX
  8
0
 10
5.82081
 20
5.74724
 30
0.0
 40
0.0138897
 41
0.0138897
  0
VERTEX
  8
0
 10
5.80149
 20
5.73469
 30
0.0
 40
0.0138897
 41
0.0138897
  0
VERTEX
  8
0
 10
5.78082
 20
5.72299
 30
0.0
 40
0.0138897
 41
0.0138897
  0
VERTEX
  8
0
 10
5.75885
 20
5.71218
 30
0.0
 40
0.0138897
 41
0.0138897
  0
VERTEX
  8
0
 10
5.73551
 20
5.70221
 30
0.0
 40
0.0138897
 41
0.0138897
  0
VERTEX
  8
0
 10
5.71078
 20
5.69308
 30
0.0
 40
0.0138897
 41
0.0138897
  0
VERTEX
  8
0
 10
5.68468
 20
5.6849
 30
0.0
 40
0.0138897
 41
0.0138897
  0
VERTEX
  8
0
 10
5.65717
 20
5.67757
 30
0.0
 40
0.0138897
 41
0.0138897
  0
VERTEX
  8
0
 10
5.62825
 20
5.67111
 30
0.0
 40
0.0138897
 41
0.0138897
  0
VERTEX
  8
0
 10
5.59788
 20
5.66564
 30
0.0
 40
0.0138897
 41
0.0138897
  0
VERTEX
  8
0
 10
5.56608
 20
5.66108
 30
0.0
 40
0.0138897
 41
0.0138897
  0
VERTEX
  8
0
 10
5.53288
 20
5.65744
 30
0.0
 40
0.0138897
 41
0.0138897
  0
SEQEND
 8
0
  0
POLYLINE
  8
0
 62
     8
 66
     1
 10
0
 20
0
 30
0.0
 70
     1
 40
0
 41
0
  0
VERTEX
  8
0
 10
5.94564
 20
6.19069
 30
0.0
 40
0
 41
0
  0
VERTEX
  8
0
 10
6.44564
 20
5.94069
 30
0.0
 40
0
 41
0
  0
VERTEX
  8
0
 10
6.68067
 20
5.94069
 30
0.0
 40
0
 41
0
  0
VERTEX
  8
0
 10
6.18067
 20
6.19069
 30
0.0
 40
0
 41
0
  0
VERTEX
  8
0
 10
5.94564
 20
6.19069
 30
0.0
 40
0
 41
0
  0
SEQEND
 8
0
  0
POLYLINE
  8
0
 62
     0
 66
     1
 10
0
 20
0
 30
0.0
 70
     1
 40
1.00006
 41
1.00006
  0
VERTEX
  8
0
 10
5.94564
 20
6.19069
 30
0.0
 40
0.0138897
 41
0.0138897
  0
VERTEX
  8
0
 10
6.44564
 20
5.94069
 30
0.0
 40
0.0138897
 41
0.0138897
  0
VERTEX
  8
0
 10
6.68067
 20
5.94069
 30
0.0
 40
0.0138897
 41
0.0138897
  0
VERTEX
  8
0
 10
6.18067
 20
6.19069
 30
0.0
 40
0.0138897
 41
0.0138897
  0
VERTEX
  8
0
 10
5.94564
 20
6.19069
 30
0.0
 40
0.0138897
 41
0.0138897
  0
SEQEND
 8
0
  0
POLYLINE
  8
0
 62
     254
 66
     1
 10
0
 20
0
 30
0.0
 70
     1
 40
0
 41
0
  0
VERTEX
  8
0
 10
6.18067
 20
6.19069
 30
0.0
 40
0
 41
0
  0
VERTEX
  8
0
 10
6.68067
 20
5.94069
 30
0.0
 40
0
 41
0
  0
VERTEX
  8
0
 10
6.68067
 20
6.30908
 30
0.0
 40
0
 41
0
  0
VERTEX
  8
0
 10
6.18067
 20
6.55908
 30
0.0
 40
0
 41
0
  0
VERTEX
  8
0
 10
6.18067
 20
6.19069
 30
0.0
 40
0
 41
0
  0
SEQEND
 8
0
  0
POLYLINE
  8
0
 62
     0
 66
     1
 10
0
 20
0
 30
0.0
 70
     1
 40
1.00006
 41
1.00006
  0
VERTEX
  8
0
 10
6.18067
 20
6.19069
 30
0.0
 40
0.0138897
 41
0.0138897
  0
VERTEX
  8
0
 10
6.68067
 20
5.94069
 30
0.0
 40
0.0138897
 41
0.0138897
  0
VERTEX
  8
0
 10
6.68067
 20
6.30908
 30
0.0
 40
0.0138897
 41
0.0138897
  0
VERTEX
  8
0
 10
6.18067
 20
6.55908
 30
0.0
 40
0.0138897
 41
0.0138897
  0
VERTEX
  8
0
 10
6.18067
 20
6.19069
 30
0.0
 40
0.0138897
 41
0.0138897
  0
SEQEND
 8
0
  0
POLYLINE
  8
0
 62
     253
 66
     1
 10
0
 20
0
 30
0.0
 70
     1
 40
0
 41
0
  0
VERTEX
  8
0
 10
1.98301
 20
1.22466
 30
0.0
 40
0
 41
0
  0
VERTEX
  8
0
 10
1.98301
 20
0.697537
 30
0.0
 40
0
 41
0
  0
VERTEX
  8
0
 10
2.44661
 20
0.697537
 30
0.0
 40
0
 41
0
  0
VERTEX
  8
0
 10
2.44661
 20
0.945258
 30
0.0
 40
0
 41
0
  0
VERTEX
  8
0
 10
2.56104
 20
0.945258
 30
0.0
 40
0
 41
0
  0
VERTEX
  8
0
 10
2.55751
 20
0.987685
 30
0.0
 40
0
 41
0
  0
VERTEX
  8
0
 10
2.5689
 20
1.11675
 30
0.0
 40
0
 41
0
  0
VERTEX
  8
0
 10
2.62446
 20
1.24691
 30
0.0
 40
0
 41
0
  0
VERTEX
  8
0
 10
2.7276
 20
1.33583
 30
0.0
 40
0
 41
0
  0
VERTEX
  8
0
 10
2.83979
 20
1.3775
 30
0.0
 40
0
 41
0
  0
VERTEX
  8
0
 10
2.87842
 20
1.38341
 30
0.0
 40
0
 41
0
  0
VERTEX
  8
0
 10
2.87842
 20
1.68832
 30
0.0
 40
0
 41
0
  0
VERTEX
  8
0
 10
2.92042
 20
1.70269
 30
0.0
 40
0
 41
0
  0
VERTEX
  8
0
 10
3.04232
 20
1.75782
 30
0.0
 40
0
 41
0
  0
VERTEX
  8
0
 10
3.17686
 20
1.84392
 30
0.0
 40
0
 41
0
  0
VERTEX
  8
0
 10
3.28201
 20
1.94672
 30
0.0
 40
0
 41
0
  0
VERTEX
  8
0
 10
3.35786
 20
2.06614
 30
0.0
 40
0
 41
0
  0
VERTEX
  8
0
 10
3.40429
 20
2.20226
 30
0.0
 40
0
 41
0
  0
VERTEX
  8
0
 10
3.42133
 20
2.35508
 30
0.0
 40
0
 41
0
  0
VERTEX
  8
0
 10
3.40907
 20
2.52458
 30
0.0
 40
0
 41
0
  0
VERTEX
  8
0
 10
3.38064
 20
2.66499
 30
0.0
 40
0
 41
0
  0
VERTEX
  8
0
 10
3.3674
 20
2.71067
 30
0.0
 40
0
 41
0
  0
VERTEX
  8
0
 10
3.44928
 20
2.74328
 30
0.0
 40
0
 41
0
  0
VERTEX
  8
0
 10
3.68804
 20
2.8584
 30
0.0
 40
0
 41
0
  0
VERTEX
  8
0
 10
3.92768
 20
3.01047
 30
0.0
 40
0
 41
0
  0
VERTEX
  8
0
 10
4.09847
 20
3.16639
 30
0.0
 40
0
 41
0
  0
VERTEX
  8
0
 10
4.21235
 20
3.32542
 30
0.0
 40
0
 41
0
  0
VERTEX
  8
0
 10
4.28147
 20
3.48693
 30
0.0
 40
0
 41
0
  0
VERTEX
  8
0
 10
4.31782
 20
3.65028
 30
0.0
 40
0
 41
0
  0
VERTEX
  8
0
 10
4.3335
 20
3.81483
 30
0.0
 40
0
 41
0
  0
VERTEX
  8
0
 10
4.34056
 20
3.97999
 30
0.0
 40
0
 41
0
  0
VERTEX
  8
0
 10
4.35101
 20
4.14501
 30
0.0
 40
0
 41
0
  0
VERTEX
  8
0
 10
4.37696
 20
4.3094
 30
0.0
 40
0
 41
0
  0
VERTEX
  8
0
 10
4.43044
 20
4.47239
 30
0.0
 40
0
 41
0
  0
VERTEX
  8
0
 10
4.52354
 20
4.63336
 30
0.0
 40
0
 41
0
  0
VERTEX
  8
0
 10
4.66824
 20
4.79172
 30
0.0
 40
0
 41
0
  0
VERTEX
  8
0
 10
4.87668
 20
4.94678
 30
0.0
 40
0
 41
0
  0
VERTEX
  8
0
 10
5.16086
 20
5.09793
 30
0.0
 40
0
 41
0
  0
VERTEX
  8
0
 10
5.43842
 20
5.21208
 30
0.0
 40
0
 41
0
  0
VERTEX
  8
0
 10
5.53288
 20
5.24447
 30
0.0
 40
0
 41
0
  0
VERTEX
  8
0
 10
5.53288
 20
5.65744
 30
0.0
 40
0
 41
0
  0
VERTEX
  8
0
 10
5.56413
 20
5.66038
 30
0.0
 40
0
 41
0
  0
VERTEX
  8
0
 10
5.65717
 20
5.67757
 30
0.0
 40
0
 41
0
  0
VERTEX
  8
0
 10
5.75885
 20
5.71218
 30
0.0
 40
0
 41
0
  0
VERTEX
  8
0
 10
5.83882
 20
5.76069
 30
0.0
 40
0
 41
0
  0
VERTEX
  8
0
 10
5.898
 20
5.82249
 30
0.0
 40
0
 41
0
  0
VERTEX
  8
0
 10
5.93733
 20
5.89697
 30
0.0
 40
0
 41
0
  0
VERTEX
  8
0
 10
5.95779
 20
5.98356
 30
0.0
 40
0
 41
0
  0
VERTEX
  8
0
 10
5.96024
 20
6.08171
 30
0.0
 40
0
 41
0
  0
VERTEX
  8
0
 10
5.95101
 20
6.16385
 30
0.0
 40
0
 41
0
  0
VERTEX
  8
0
 10
5.94564
 20
6.19069
 30
0.0
 40
0
 41
0
  0
VERTEX
  8
0
 10
6.18067
 20
6.19069
 30
0.0
 40
0
 41
0
  0
VERTEX
  8
0
 10
6.18067
 20
6.55908
 30
0.0
 40
0
 41
0
  0
VERTEX
  8
0
 10
5.58365
 20
6.52089
 30
0.0
 40
0
 41
0
  0
VERTEX
  8
0
 10
1.98301
 20
1.22466
 30
0.0
 40
0
 41
0
  0
SEQEND
 8
0
  0
POLYLINE
  8
0
 62
     0
 66
     1
 10
0
 20
0
 30
0.0
 70
     1
 40
1.00006
 41
1.00006
  0
VERTEX
  8
0
 10
1.98301
 20
1.22466
 30
0.0
 40
0.0138897
 41
0.0138897
  0
VERTEX
  8
0
 10
1.98301
 20
0.697537
 30
0.0
 40
0.0138897
 41
0.0138897
  0
VERTEX
  8
0
 10
2.44661
 20
0.697537
 30
0.0
 40
0.0138897
 41
0.0138897
  0
VERTEX
  8
0
 10
2.44661
 20
0.945258
 30
0.0
 40
0.0138897
 41
0.0138897
  0
VERTEX
  8
0
 10
2.56104
 20
0.945258
 30
0.0
 40
0.0138897
 41
0.0138897
  0
VERTEX
  8
0
 10
2.55751
 20
0.987685
 30
0.0
 40
0.0138897
 41
0.0138897
  0
VERTEX
  8
0
 10
2.5689
 20
1.11675
 30
0.0
 40
0.0138897
 41
0.0138897
  0
VERTEX
  8
0
 10
2.62446
 20
1.24691
 30
0.0
 40
0.0138897
 41
0.0138897
  0
VERTEX
  8
0
 10
2.7276
 20
1.33583
 30
0.0
 40
0.0138897
 41
0.0138897
  0
VERTEX
  8
0
 10
2.83979
 20
1.3775
 30
0.0
 40
0.0138897
 41
0.0138897
  0
VERTEX
  8
0
 10
2.87842
 20
1.38341
 30
0.0
 40
0.0138897
 41
0.0138897
  0
VERTEX
  8
0
 10
2.87842
 20
1.68832
 30
0.0
 40
0.0138897
 41
0.0138897
  0
VERTEX
  8
0
 10
2.92042
 20
1.70269
 30
0.0
 40
0.0138897
 41
0.0138897
  0
VERTEX
  8
0
 10
3.04232
 20
1.75782
 30
0.0
 40
0.0138897
 41
0.0138897
  0
VERTEX
  8
0
 10
3.17686
 20
1.84392
 30
0.0
 40
0.0138897
 41
0.0138897
  0
VERTEX
  8
0
 10
3.28201
 20
1.94672
 30
0.0
 40
0.0138897
 41
0.0138897
  0
VERTEX
  8
0
 10
3.35786
 20
2.06614
 30
0.0
 40
0.0138897
 41
0.0138897
  0
VERTEX
  8
0
 10
3.40429
 20
2.20226
 30
0.0
 40
0.0138897
 41
0.0138897
  0
VERTEX
  8
0
 10
3.42133
 20
2.35508
 30
0.0
 40
0.0138897
 41
0.0138897
  0
VERTEX
  8
0
 10
3.40907
 20
2.52458
 30
0.0
 40
0.0138897
 41
0.0138897
  0
VERTEX
  8
0
 10
3.38064
 20
2.66499
 30
0.0
 40
0.0138897
 41
0.0138897
  0
VERTEX
  8
0
 10
3.3674
 20
2.71067
 30
0.0
 40
0.0138897
 41
0.0138897
  0
VERTEX
  8
0
 10
3.44928
 20
2.74328
 30
0.0
 40
0.0138897
 41
0.0138897
  0
VERTEX
  8
0
 10
3.68804
 20
2.8584
 30
0.0
 40
0.0138897
 41
0.0138897
  0
VERTEX
  8
0
 10
3.92768
 20
3.01047
 30
0.0
 40
0.0138897
 41
0.0138897
  0
VERTEX
  8
0
 10
4.09847
 20
3.16639
 30
0.0
 40
0.0138897
 41
0.0138897
  0
VERTEX
  8
0
 10
4.21235
 20
3.32542
 30
0.0
 40
0.0138897
 41
0.0138897
  0
VERTEX
  8
0
 10
4.28147
 20
3.48693
 30
0.0
 40
0.0138897
 41
0.0138897
  0
VERTEX
  8
0
 10
4.31782
 20
3.65028
 30
0.0
 40
0.0138897
 41
0.0138897
  0
VERTEX
  8
0
 10
4.3335
 20
3.81483
 30
0.0
 40
0.0138897
 41
0.0138897
  0
VERTEX
  8
0
 10
4.34056
 20
3.97999
 30
0.0
 40
0.0138897
 41
0.0138897
  0
VERTEX
  8
0
 10
4.35101
 20
4.14501
 30
0.0
 40
0.0138897
 41
0.0138897
  0
VERTEX
  8
0
 10
4.37696
 20
4.3094
 30
0.0
 40
0.0138897
 41
0.0138897
  0
VERTEX
  8
0
 10
4.43044
 20
4.47239
 30
0.0
 40
0.0138897
 41
0.0138897
  0
VERTEX
  8
0
 10
4.52354
 20
4.63336
 30
0.0
 40
0.0138897
 41
0.0138897
  0
VERTEX
  8
0
 10
4.66824
 20
4.79172
 30
0.0
 40
0.0138897
 41
0.0138897
  0
VERTEX
  8
0
 10
4.87668
 20
4.94678
 30
0.0
 40
0.0138897
 41
0.0138897
  0
VERTEX
  8
0
 10
5.16086
 20
5.09793
 30
0.0
 40
0.0138897
 41
0.0138897
  0
VERTEX
  8
0
 10
5.43842
 20
5.21208
 30
0.0
 40
0.0138897
 41
0.0138897
  0
VERTEX
  8
0
 10
5.53288
 20
5.24447
 30
0.0
 40
0.0138897
 41
0.0138897
  0
VERTEX
  8
0
 10
5.53288
 20
5.65744
 30
0.0
 40
0.0138897
 41
0.0138897
  0
VERTEX
  8
0
 10
5.56413
 20
5.66038
 30
0.0
 40
0.0138897
 41
0.0138897
  0
VERTEX
  8
0
 10
5.65717
 20
5.67757
 30
0.0
 40
0.0138897
 41
0.0138897
  0
VERTEX
  8
0
 10
5.75885
 20
5.71218
 30
0.0
 40
0.0138897
 41
0.0138897
  0
VERTEX
  8
0
 10
5.83882
 20
5.76069
 30
0.0
 40
0.0138897
 41
0.0138897
  0
VERTEX
  8
0
 10
5.898
 20
5.82249
 30
0.0
 40
0.0138897
 41
0.0138897
  0
VERTEX
  8
0
 10
5.93733
 20
5.89697
 30
0.0
 40
0.0138897
 41
0.0138897
  0
VERTEX
  8
0
 10
5.95779
 20
5.98356
 30
0.0
 40
0.0138897
 41
0.0138897
  0
VERTEX
  8
0
 10
5.96024
 20
6.08171
 30
0.0
 40
0.0138897
 41
0.0138897
  0
VERTEX
  8
0
 10
5.95101
 20
6.16385
 30
0.0
 40
0.0138897
 41
0.0138897
  0
VERTEX
  8
0
 10
5.94564
 20
6.19069
 30
0.0
 40
0.0138897
 41
0.0138897
  0
VERTEX
  8
0
 10
6.18067
 20
6.19069
 30
0.0
 40
0.0138897
 41
0.0138897
  0
VERTEX
  8
0
 10
6.18067
 20
6.55908
 30
0.0
 40
0.0138897
 41
0.0138897
  0
VERTEX
  8
0
 10
5.58365
 20
6.52089
 30
0.0
 40
0.0138897
 41
0.0138897
  0
VERTEX
  8
0
 10
1.98301
 20
1.22466
 30
0.0
 40
0.0138897
 41
0.0138897
  0
SEQEND
 8
0
  0
POLYLINE
  8
0
 62
     0
 66
     1
 10
0
 20
0
 30
0.0
 70
     1
 40
0
 41
0
  0
VERTEX
  8
0
 10
1.83897
 20
2.29232
 30
0.0
 40
0
 41
0
  0
VERTEX
  8
0
 10
1.84706
 20
2.28863
 30
0.0
 40
0
 41
0
  0
VERTEX
  8
0
 10
1.84706
 20
2.26926
 30
0.0
 40
0
 41
0
  0
VERTEX
  8
0
 10
1.85568
 20
2.26503
 30
0.0
 40
0
 41
0
  0
VERTEX
  8
0
 10
1.85596
 20
2.26714
 30
0.0
 40
0
 41
0
  0
VERTEX
  8
0
 10
1.86376
 20
2.28375
 30
0.0
 40
0
 41
0
  0
VERTEX
  8
0
 10
1.86507
 20
2.28494
 30
0.0
 40
0
 41
0
  0
VERTEX
  8
0
 10
1.8661
 20
2.28603
 30
0.0
 40
0
 41
0
  0
VERTEX
  8
0
 10
1.87668
 20
2.29129
 30
0.0
 40
0
 41
0
  0
VERTEX
  8
0
 10
1.88021
 20
2.29129
 30
0.0
 40
0
 41
0
  0
VERTEX
  8
0
 10
1.88254
 20
2.29129
 30
0.0
 40
0
 41
0
  0
VERTEX
  8
0
 10
1.88889
 20
2.28961
 30
0.0
 40
0
 41
0
  0
VERTEX
  8
0
 10
1.88965
 20
2.28922
 30
0.0
 40
0
 41
0
  0
VERTEX
  8
0
 10
1.89035
 20
2.2889
 30
0.0
 40
0
 41
0
  0
VERTEX
  8
0
 10
1.89643
 20
2.28456
 30
0.0
 40
0
 41
0
  0
VERTEX
  8
0
 10
1.89697
 20
2.28401
 30
0.0
 40
0
 41
0
  0
VERTEX
  8
0
 10
1.89746
 20
2.28353
 30
0.0
 40
0
 41
0
  0
VERTEX
  8
0
 10
1.90153
 20
2.27767
 30
0.0
 40
0
 41
0
  0
VERTEX
  8
0
 10
1.90186
 20
2.27701
 30
0.0
 40
0
 41
0
  0
VERTEX
  8
0
 10
1.90229
 20
2.27615
 30
0.0
 40
0
 41
0
  0
VERTEX
  8
0
 10
1.90446
 20
2.26844
 30
0.0
 40
0
 41
0
  0
VERTEX
  8
0
 10
1.90446
 20
2.26585
 30
0.0
 40
0
 41
0
  0
VERTEX
  8
0
 10
1.90446
 20
2.26378
 30
0.0
 40
0
 41
0
  0
VERTEX
  8
0
 10
1.90283
 20
2.25786
 30
0.0
 40
0
 41
0
  0
VERTEX
  8
0
 10
1.9025
 20
2.25743
 30
0.0
 40
0
 41
0
  0
VERTEX
  8
0
 10
1.90218
 20
2.257
 30
0.0
 40
0
 41
0
  0
VERTEX
  8
0
 10
1.89914
 20
2.25478
 30
0.0
 40
0
 41
0
  0
VERTEX
  8
0
 10
1.89817
 20
2.25478
 30
0.0
 40
0
 41
0
  0
VERTEX
  8
0
 10
1.89757
 20
2.25478
 30
0.0
 40
0
 41
0
  0
VERTEX
  8
0
 10
1.896
 20
2.25569
 30
0.0
 40
0
 41
0
  0
VERTEX
  8
0
 10
1.89583
 20
2.25586
 30
0.0
 40
0
 41
0
  0
VERTEX
  8
0
 10
1.89561
 20
2.25608
 30
0.0
 40
0
 41
0
  0
VERTEX
  8
0
 10
1.89481
 20
2.25803
 30
0.0
 40
0
 41
0
  0
VERTEX
  8
0
 10
1.89481
 20
2.25863
 30
0.0
 40
0
 41
0
  0
VERTEX
  8
0
 10
1.89481
 20
2.25917
 30
0.0
 40
0
 41
0
  0
VERTEX
  8
0
 10
1.89507
 20
2.26069
 30
0.0
 40
0
 41
0
  0
VERTEX
  8
0
 10
1.89518
 20
2.26079
 30
0.0
 40
0
 41
0
  0
VERTEX
  8
0
 10
1.89524
 20
2.26096
 30
0.0
 40
0
 41
0
  0
VERTEX
  8
0
 10
1.89686
 20
2.26361
 30
0.0
 40
0
 41
0
  0
VERTEX
  8
0
 10
1.89714
 20
2.26394
 30
0.0
 40
0
 41
0
  0
VERTEX
  8
0
 10
1.89751
 20
2.26454
 30
0.0
 40
0
 41
0
  0
VERTEX
  8
0
 10
1.89962
 20
2.26953
 30
0.0
 40
0
 41
0
  0
VERTEX
  8
0
 10
1.89962
 20
2.27115
 30
0.0
 40
0
 41
0
  0
VERTEX
  8
0
 10
1.89962
 20
2.2736
 30
0.0
 40
0
 41
0
  0
VERTEX
  8
0
 10
1.89611
 20
2.28022
 30
0.0
 40
0
 41
0
  0
VERTEX
  8
0
 10
1.8954
 20
2.28093
 30
0.0
 40
0
 41
0
  0
VERTEX
  8
0
 10
1.89469
 20
2.28162
 30
0.0
 40
0
 41
0
  0
VERTEX
  8
0
 10
1.88753
 20
2.2851
 30
0.0
 40
0
 41
0
  0
VERTEX
  8
0
 10
1.88514
 20
2.2851
 30
0.0
 40
0
 41
0
  0
VERTEX
  8
0
 10
1.88243
 20
2.2851
 30
0.0
 40
0
 41
0
  0
VERTEX
  8
0
 10
1.87511
 20
2.28201
 30
0.0
 40
0
 41
0
  0
VERTEX
  8
0
 10
1.87429
 20
2.28136
 30
0.0
 40
0
 41
0
  0
VERTEX
  8
0
 10
1.87343
 20
2.28076
 30
0.0
 40
0
 41
0
  0
VERTEX
  8
0
 10
1.86692
 20
2.27214
 30
0.0
 40
0
 41
0
  0
VERTEX
  8
0
 10
1.86649
 20
2.271
 30
0.0
 40
0
 41
0
  0
VERTEX
  8
0
 10
1.8661
 20
2.27018
 30
0.0
 40
0
 41
0
  0
VERTEX
  8
0
 10
1.86404
 20
2.2584
 30
0.0
 40
0
 41
0
  0
VERTEX
  8
0
 10
1.86399
 20
2.25689
 30
0.0
 40
0
 41
0
  0
VERTEX
  8
0
 10
1.83897
 20
2.26926
 30
0.0
 40
0
 41
0
  0
VERTEX
  8
0
 10
1.83897
 20
2.29232
 30
0.0
 40
0
 41
0
  0
SEQEND
 8
0
  0
POLYLINE
  8
0
 62
     0
 66
     1
 10
0
 20
0
 30
0.0
 70
     1
 40
0
 41
0
  0
VERTEX
  8
0
 10
1.87799
 20
2.30268
 30
0.0
 40
0
 41
0
  0
VERTEX
  8
0
 10
1.87799
 20
2.32721
 30
0.0
 40
0
 41
0
  0
VERTEX
  8
0
 10
1.88514
 20
2.32721
 30
0.0
 40
0
 41
0
  0
VERTEX
  8
0
 10
1.88514
 20
2.30268
 30
0.0
 40
0
 41
0
  0
VERTEX
  8
0
 10
1.87799
 20
2.30268
 30
0.0
 40
0
 41
0
  0
SEQEND
 8
0
  0
POLYLINE
  8
0
 62
     0
 66
     1
 10
0
 20
0
 30
0.0
 70
     1
 40
0
 41
0
  0
VERTEX
  8
0
 10
1.83897
 20
2.34088
 30
0.0
 40
0
 41
0
  0
VERTEX
  8
0
 10
1.83897
 20
2.37537
 30
0.0
 40
0
 41
0
  0
VERTEX
  8
0
 10
1.84076
 20
2.37537
 30
0.0
 40
0
 41
0
  0
VERTEX
  8
0
 10
1.90468
 20
2.35394
 30
0.0
 40
0
 41
0
  0
VERTEX
  8
0
 10
1.90468
 20
2.34864
 30
0.0
 40
0
 41
0
  0
VERTEX
  8
0
 10
1.84674
 20
2.36783
 30
0.0
 40
0
 41
0
  0
VERTEX
  8
0
 10
1.84674
 20
2.35015
 30
0.0
 40
0
 41
0
  0
VERTEX
  8
0
 10
1.84674
 20
2.34825
 30
0.0
 40
0
 41
0
  0
VERTEX
  8
0
 10
1.84776
 20
2.34289
 30
0.0
 40
0
 41
0
  0
VERTEX
  8
0
 10
1.84799
 20
2.3425
 30
0.0
 40
0
 41
0
  0
VERTEX
  8
0
 10
1.84831
 20
2.34185
 30
0.0
 40
0
 41
0
  0
VERTEX
  8
0
 10
1.854
 20
2.33653
 30
0.0
 40
0
 41
0
  0
VERTEX
  8
0
 10
1.85476
 20
2.3361
 30
0.0
 40
0
 41
0
  0
VERTEX
  8
0
 10
1.85422
 20
2.33475
 30
0.0
 40
0
 41
0
  0
VERTEX
  8
0
 10
1.83897
 20
2.34088
 30
0.0
 40
0
 41
0
  0
SEQEND
 8
0
  0
POLYLINE
  8
0
 62
     0
 66
     1
 10
0
 20
0
 30
0.0
 70
     1
 40
0
 41
0
  0
VERTEX
  8
0
 10
1.83583
 20
2.40696
 30
0.0
 40
0
 41
0
  0
VERTEX
  8
0
 10
1.90468
 20
2.38368
 30
0.0
 40
0
 41
0
  0
VERTEX
  8
0
 10
1.90468
 20
2.37989
 30
0.0
 40
0
 41
0
  0
VERTEX
  8
0
 10
1.83583
 20
2.40315
 30
0.0
 40
0
 41
0
  0
VERTEX
  8
0
 10
1.83583
 20
2.40696
 30
0.0
 40
0
 41
0
  0
SEQEND
 8
0
  0
POLYLINE
  8
0
 62
     0
 66
     1
 10
0
 20
0
 30
0.0
 70
     1
 40
0
 41
0
  0
VERTEX
  8
0
 10
1.87093
 20
2.4254
 30
0.0
 40
0
 41
0
  0
VERTEX
  8
0
 10
1.86985
 20
2.42415
 30
0.0
 40
0
 41
0
  0
VERTEX
  8
0
 10
1.86149
 20
2.4159
 30
0.0
 40
0
 41
0
  0
VERTEX
  8
0
 10
1.86089
 20
2.41553
 30
0.0
 40
0
 41
0
  0
VERTEX
  8
0
 10
1.86025
 20
2.41521
 30
0.0
 40
0
 41
0
  0
VERTEX
  8
0
 10
1.85476
 20
2.41331
 30
0.0
 40
0
 41
0
  0
VERTEX
  8
0
 10
1.85297
 20
2.41331
 30
0.0
 40
0
 41
0
  0
VERTEX
  8
0
 10
1.85026
 20
2.41331
 30
0.0
 40
0
 41
0
  0
VERTEX
  8
0
 10
1.84293
 20
2.41737
 30
0.0
 40
0
 41
0
  0
VERTEX
  8
0
 10
1.84218
 20
2.41818
 30
0.0
 40
0
 41
0
  0
VERTEX
  8
0
 10
1.84142
 20
2.419
 30
0.0
 40
0
 41
0
  0
VERTEX
  8
0
 10
1.83768
 20
2.42806
 30
0.0
 40
0
 41
0
  0
VERTEX
  8
0
 10
1.83768
 20
2.43104
 30
0.0
 40
0
 41
0
  0
VERTEX
  8
0
 10
1.83768
 20
2.43419
 30
0.0
 40
0
 41
0
  0
VERTEX
  8
0
 10
1.84119
 20
2.44282
 30
0.0
 40
0
 41
0
  0
VERTEX
  8
0
 10
1.8419
 20
2.44358
 30
0.0
 40
0
 41
0
  0
VERTEX
  8
0
 10
1.84261
 20
2.44439
 30
0.0
 40
0
 41
0
  0
VERTEX
  8
0
 10
1.84928
 20
2.44829
 30
0.0
 40
0
 41
0
  0
VERTEX
  8
0
 10
1.85151
 20
2.44829
 30
0.0
 40
0
 41
0
  0
VERTEX
  8
0
 10
1.85335
 20
2.44829
 30
0.0
 40
0
 41
0
  0
VERTEX
  8
0
 10
1.85824
 20
2.44618
 30
0.0
 40
0
 41
0
  0
VERTEX
  8
0
 10
1.85889
 20
2.44575
 30
0.0
 40
0
 41
0
  0
VERTEX
  8
0
 10
1.85949
 20
2.44536
 30
0.0
 40
0
 41
0
  0
VERTEX
  8
0
 10
1.86686
 20
2.43642
 30
0.0
 40
0
 41
0
  0
VERTEX
  8
0
 10
1.86774
 20
2.43506
 30
0.0
 40
0
 41
0
  0
VERTEX
  8
0
 10
1.86876
 20
2.43647
 30
0.0
 40
0
 41
0
  0
VERTEX
  8
0
 10
1.87722
 20
2.44569
 30
0.0
 40
0
 41
0
  0
VERTEX
  8
0
 10
1.87788
 20
2.44613
 30
0.0
 40
0
 41
0
  0
VERTEX
  8
0
 10
1.87864
 20
2.44672
 30
0.0
 40
0
 41
0
  0
VERTEX
  8
0
 10
1.88569
 20
2.44971
 30
0.0
 40
0
 41
0
  0
VERTEX
  8
0
 10
1.88807
 20
2.44971
 30
0.0
 40
0
 41
0
  0
VERTEX
  8
0
 10
1.89094
 20
2.44971
 30
0.0
 40
0
 41
0
  0
VERTEX
  8
0
 10
1.89887
 20
2.44542
 30
0.0
 40
0
 41
0
  0
VERTEX
  8
0
 10
1.89968
 20
2.44456
 30
0.0
 40
0
 41
0
  0
VERTEX
  8
0
 10
1.90044
 20
2.44374
 30
0.0
 40
0
 41
0
  0
VERTEX
  8
0
 10
1.90451
 20
2.43419
 30
0.0
 40
0
 41
0
  0
VERTEX
  8
0
 10
1.90451
 20
2.43099
 30
0.0
 40
0
 41
0
  0
VERTEX
  8
0
 10
1.90451
 20
2.4274
 30
0.0
 40
0
 41
0
  0
VERTEX
  8
0
 10
1.89968
 20
2.41754
 30
0.0
 40
0
 41
0
  0
VERTEX
  8
0
 10
1.89876
 20
2.41667
 30
0.0
 40
0
 41
0
  0
VERTEX
  8
0
 10
1.89794
 20
2.41601
 30
0.0
 40
0
 41
0
  0
VERTEX
  8
0
 10
1.89094
 20
2.4126
 30
0.0
 40
0
 41
0
  0
VERTEX
  8
0
 10
1.88867
 20
2.4126
 30
0.0
 40
0
 41
0
  0
VERTEX
  8
0
 10
1.88656
 20
2.4126
 30
0.0
 40
0
 41
0
  0
VERTEX
  8
0
 10
1.88092
 20
2.41504
 30
0.0
 40
0
 41
0
  0
VERTEX
  8
0
 10
1.88021
 20
2.41547
 30
0.0
 40
0
 41
0
  0
VERTEX
  8
0
 10
1.8795
 20
2.41596
 30
0.0
 40
0
 41
0
  0
VERTEX
  8
0
 10
1.87175
 20
2.42426
 30
0.0
 40
0
 41
0
  0
VERTEX
  8
0
 10
1.87093
 20
2.4254
 30
0.0
 40
0
 41
0
  0
SEQEND
 8
0
  0
POLYLINE
  8
0
 62
     0
 66
     1
 10
0
 20
0
 30
0.0
 70
     1
 40
0
 41
0
  0
VERTEX
  8
0
 10
1.86589
 20
2.43283
 30
0.0
 40
0
 41
0
  0
VERTEX
  8
0
 10
1.86501
 20
2.43381
 30
0.0
 40
0
 41
0
  0
VERTEX
  8
0
 10
1.85824
 20
2.43983
 30
0.0
 40
0
 41
0
  0
VERTEX
  8
0
 10
1.85775
 20
2.44006
 30
0.0
 40
0
 41
0
  0
VERTEX
  8
0
 10
1.85726
 20
2.44032
 30
0.0
 40
0
 41
0
  0
VERTEX
  8
0
 10
1.85254
 20
2.44157
 30
0.0
 40
0
 41
0
  0
VERTEX
  8
0
 10
1.85101
 20
2.44157
 30
0.0
 40
0
 41
0
  0
VERTEX
  8
0
 10
1.84907
 20
2.44157
 30
0.0
 40
0
 41
0
  0
VERTEX
  8
0
 10
1.84369
 20
2.43929
 30
0.0
 40
0
 41
0
  0
VERTEX
  8
0
 10
1.84326
 20
2.43881
 30
0.0
 40
0
 41
0
  0
VERTEX
  8
0
 10
1.84278
 20
2.43838
 30
0.0
 40
0
 41
0
  0
VERTEX
  8
0
 10
1.84039
 20
2.433
 30
0.0
 40
0
 41
0
  0
VERTEX
  8
0
 10
1.84039
 20
2.43115
 30
0.0
 40
0
 41
0
  0
VERTEX
  8
0
 10
1.84039
 20
2.42919
 30
0.0
 40
0
 41
0
  0
VERTEX
  8
0
 10
1.84272
 20
2.42383
 30
0.0
 40
0
 41
0
  0
VERTEX
  8
0
 10
1.84321
 20
2.42329
 30
0.0
 40
0
 41
0
  0
VERTEX
  8
0
 10
1.84364
 20
2.42279
 30
0.0
 40
0
 41
0
  0
VERTEX
  8
0
 10
1.84819
 20
2.42019
 30
0.0
 40
0
 41
0
  0
VERTEX
  8
0
 10
1.84978
 20
2.42019
 30
0.0
 40
0
 41
0
  0
VERTEX
  8
0
 10
1.85097
 20
2.42019
 30
0.0
 40
0
 41
0
  0
VERTEX
  8
0
 10
1.85428
 20
2.42128
 30
0.0
 40
0
 41
0
  0
VERTEX
  8
0
 10
1.85471
 20
2.4215
 30
0.0
 40
0
 41
0
  0
VERTEX
  8
0
 10
1.85508
 20
2.42171
 30
0.0
 40
0
 41
0
  0
VERTEX
  8
0
 10
1.859
 20
2.42469
 30
0.0
 40
0
 41
0
  0
VERTEX
  8
0
 10
1.85938
 20
2.42508
 30
0.0
 40
0
 41
0
  0
VERTEX
  8
0
 10
1.86589
 20
2.43283
 30
0.0
 40
0
 41
0
  0
SEQEND
 8
0
  0
POLYLINE
  8
0
 62
     0
 66
     1
 10
0
 20
0
 30
0.0
 70
     1
 40
0
 41
0
  0
VERTEX
  8
0
 10
1.87272
 20
2.42763
 30
0.0
 40
0
 41
0
  0
VERTEX
  8
0
 10
1.87326
 20
2.42697
 30
0.0
 40
0
 41
0
  0
VERTEX
  8
0
 10
1.87935
 20
2.4221
 30
0.0
 40
0
 41
0
  0
VERTEX
  8
0
 10
1.87999
 20
2.42176
 30
0.0
 40
0
 41
0
  0
VERTEX
  8
0
 10
1.88064
 20
2.4215
 30
0.0
 40
0
 41
0
  0
VERTEX
  8
0
 10
1.8865
 20
2.41988
 30
0.0
 40
0
 41
0
  0
VERTEX
  8
0
 10
1.88846
 20
2.41988
 30
0.0
 40
0
 41
0
  0
VERTEX
  8
0
 10
1.8909
 20
2.41988
 30
0.0
 40
0
 41
0
  0
VERTEX
  8
0
 10
1.89762
 20
2.42269
 30
0.0
 40
0
 41
0
  0
VERTEX
  8
0
 10
1.89828
 20
2.42324
 30
0.0
 40
0
 41
0
  0
VERTEX
  8
0
 10
1.89887
 20
2.42383
 30
0.0
 40
0
 41
0
  0
VERTEX
  8
0
 10
1.90192
 20
2.42979
 30
0.0
 40
0
 41
0
  0
VERTEX
  8
0
 10
1.90192
 20
2.43175
 30
0.0
 40
0
 41
0
  0
VERTEX
  8
0
 10
1.90192
 20
2.43381
 30
0.0
 40
0
 41
0
  0
VERTEX
  8
0
 10
1.89953
 20
2.43946
 30
0.0
 40
0
 41
0
  0
VERTEX
  8
0
 10
1.89903
 20
2.43994
 30
0.0
 40
0
 41
0
  0
VERTEX
  8
0
 10
1.89854
 20
2.44049
 30
0.0
 40
0
 41
0
  0
VERTEX
  8
0
 10
1.89367
 20
2.44303
 30
0.0
 40
0
 41
0
  0
VERTEX
  8
0
 10
1.89204
 20
2.44303
 30
0.0
 40
0
 41
0
  0
VERTEX
  8
0
 10
1.89046
 20
2.44303
 30
0.0
 40
0
 41
0
  0
VERTEX
  8
0
 10
1.88633
 20
2.44157
 30
0.0
 40
0
 41
0
  0
VERTEX
  8
0
 10
1.8859
 20
2.44125
 30
0.0
 40
0
 41
0
  0
VERTEX
  8
0
 10
1.88504
 20
2.44071
 30
0.0
 40
0
 41
0
  0
VERTEX
  8
0
 10
1.87408
 20
2.42936
 30
0.0
 40
0
 41
0
  0
VERTEX
  8
0
 10
1.87272
 20
2.42763
 30
0.0
 40
0
 41
0
  0
SEQEND
 8
0
  0
POLYLINE
  8
0
 62
     0
 66
     1
 10
0
 20
0
 30
0.0
 70
     1
 40
0
 41
0
  0
VERTEX
  8
0
 10
2.25358
 20
2.88112
 30
0.0
 40
0
 41
0
  0
VERTEX
  8
0
 10
2.25358
 20
2.8744
 30
0.0
 40
0
 41
0
  0
VERTEX
  8
0
 10
2.2449
 20
2.8744
 30
0.0
 40
0
 41
0
  0
VERTEX
  8
0
 10
2.2449
 20
2.85736
 30
0.0
 40
0
 41
0
  0
VERTEX
  8
0
 10
2.23708
 20
2.85736
 30
0.0
 40
0
 41
0
  0
VERTEX
  8
0
 10
2.23708
 20
2.8744
 30
0.0
 40
0
 41
0
  0
VERTEX
  8
0
 10
2.20985
 20
2.8744
 30
0.0
 40
0
 41
0
  0
VERTEX
  8
0
 10
2.20985
 20
2.88049
 30
0.0
 40
0
 41
0
  0
VERTEX
  8
0
 10
2.23969
 20
2.92307
 30
0.0
 40
0
 41
0
  0
VERTEX
  8
0
 10
2.2449
 20
2.92307
 30
0.0
 40
0
 41
0
  0
VERTEX
  8
0
 10
2.2449
 20
2.88112
 30
0.0
 40
0
 41
0
  0
VERTEX
  8
0
 10
2.25358
 20
2.88112
 30
0.0
 40
0
 41
0
  0
SEQEND
 8
0
  0
POLYLINE
  8
0
 62
     0
 66
     1
 10
0
 20
0
 30
0.0
 70
     1
 40
0
 41
0
  0
VERTEX
  8
0
 10
2.23708
 20
2.88112
 30
0.0
 40
0
 41
0
  0
VERTEX
  8
0
 10
2.23708
 20
2.91308
 30
0.0
 40
0
 41
0
  0
VERTEX
  8
0
 10
2.21451
 20
2.88112
 30
0.0
 40
0
 41
0
  0
VERTEX
  8
0
 10
2.23708
 20
2.88112
 30
0.0
 40
0
 41
0
  0
SEQEND
 8
0
  0
POLYLINE
  8
0
 62
     0
 66
     1
 10
0
 20
0
 30
0.0
 70
     1
 40
0
 41
0
  0
VERTEX
  8
0
 10
2.26085
 20
2.88276
 30
0.0
 40
0
 41
0
  0
VERTEX
  8
0
 10
2.28543
 20
2.88276
 30
0.0
 40
0
 41
0
  0
VERTEX
  8
0
 10
2.28543
 20
2.8756
 30
0.0
 40
0
 41
0
  0
VERTEX
  8
0
 10
2.26085
 20
2.8756
 30
0.0
 40
0
 41
0
  0
VERTEX
  8
0
 10
2.26085
 20
2.88276
 30
0.0
 40
0
 41
0
  0
SEQEND
 8
0
  0
POLYLINE
  8
0
 62
     0
 66
     1
 10
0
 20
0
 30
0.0
 70
     1
 40
0
 41
0
  0
VERTEX
  8
0
 10
2.29422
 20
2.9095
 30
0.0
 40
0
 41
0
  0
VERTEX
  8
0
 10
2.29465
 20
2.9106
 30
0.0
 40
0
 41
0
  0
VERTEX
  8
0
 10
2.30051
 20
2.919
 30
0.0
 40
0
 41
0
  0
VERTEX
  8
0
 10
2.30122
 20
2.91954
 30
0.0
 40
0
 41
0
  0
VERTEX
  8
0
 10
2.30186
 20
2.92014
 30
0.0
 40
0
 41
0
  0
VERTEX
  8
0
 10
2.30919
 20
2.92307
 30
0.0
 40
0
 41
0
  0
VERTEX
  8
0
 10
2.31168
 20
2.92307
 30
0.0
 40
0
 41
0
  0
VERTEX
  8
0
 10
2.31461
 20
2.92307
 30
0.0
 40
0
 41
0
  0
VERTEX
  8
0
 10
2.32281
 20
2.91889
 30
0.0
 40
0
 41
0
  0
VERTEX
  8
0
 10
2.32351
 20
2.91803
 30
0.0
 40
0
 41
0
  0
VERTEX
  8
0
 10
2.324
 20
2.91743
 30
0.0
 40
0
 41
0
  0
VERTEX
  8
0
 10
2.32667
 20
2.91189
 30
0.0
 40
0
 41
0
  0
VERTEX
  8
0
 10
2.32667
 20
2.91004
 30
0.0
 40
0
 41
0
  0
VERTEX
  8
0
 10
2.32667
 20
2.90642
 30
0.0
 40
0
 41
0
  0
VERTEX
  8
0
 10
2.31928
 20
2.89675
 30
0.0
 40
0
 41
0
  0
VERTEX
  8
0
 10
2.31782
 20
2.89551
 30
0.0
 40
0
 41
0
  0
VERTEX
  8
0
 10
2.31879
 20
2.89513
 30
0.0
 40
0
 41
0
  0
VERTEX
  8
0
 10
2.32628
 20
2.8896
 30
0.0
 40
0
 41
0
  0
VERTEX
  8
0
 10
2.32682
 20
2.88883
 30
0.0
 40
0
 41
0
  0
VERTEX
  8
0
 10
2.32731
 20
2.88813
 30
0.0
 40
0
 41
0
  0
VERTEX
  8
0
 10
2.32986
 20
2.88108
 30
0.0
 40
0
 41
0
  0
VERTEX
  8
0
 10
2.32986
 20
2.87869
 30
0.0
 40
0
 41
0
  0
VERTEX
  8
0
 10
2.32986
 20
2.87511
 30
0.0
 40
0
 41
0
  0
VERTEX
  8
0
 10
2.32542
 20
2.86524
 30
0.0
 40
0
 41
0
  0
VERTEX
  8
0
 10
2.32454
 20
2.86421
 30
0.0
 40
0
 41
0
  0
VERTEX
  8
0
 10
2.32335
 20
2.8629
 30
0.0
 40
0
 41
0
  0
VERTEX
  8
0
 10
2.30919
 20
2.85622
 30
0.0
 40
0
 41
0
  0
VERTEX
  8
0
 10
2.30447
 20
2.85622
 30
0.0
 40
0
 41
0
  0
VERTEX
  8
0
 10
2.30225
 20
2.85622
 30
0.0
 40
0
 41
0
  0
VERTEX
  8
0
 10
2.29596
 20
2.85758
 30
0.0
 40
0
 41
0
  0
VERTEX
  8
0
 10
2.29557
 20
2.85786
 30
0.0
 40
0
 41
0
  0
VERTEX
  8
0
 10
2.29519
 20
2.85813
 30
0.0
 40
0
 41
0
  0
VERTEX
  8
0
 10
2.29324
 20
2.86057
 30
0.0
 40
0
 41
0
  0
VERTEX
  8
0
 10
2.29324
 20
2.86133
 30
0.0
 40
0
 41
0
  0
VERTEX
  8
0
 10
2.29324
 20
2.86199
 30
0.0
 40
0
 41
0
  0
VERTEX
  8
0
 10
2.29417
 20
2.86361
 30
0.0
 40
0
 41
0
  0
VERTEX
  8
0
 10
2.29438
 20
2.86376
 30
0.0
 40
0
 41
0
  0
VERTEX
  8
0
 10
2.29454
 20
2.86399
 30
0.0
 40
0
 41
0
  0
VERTEX
  8
0
 10
2.29639
 20
2.86481
 30
0.0
 40
0
 41
0
  0
VERTEX
  8
0
 10
2.29704
 20
2.86481
 30
0.0
 40
0
 41
0
  0
VERTEX
  8
0
 10
2.29764
 20
2.86481
 30
0.0
 40
0
 41
0
  0
VERTEX
  8
0
 10
2.29926
 20
2.86447
 30
0.0
 40
0
 41
0
  0
VERTEX
  8
0
 10
2.29949
 20
2.86442
 30
0.0
 40
0
 41
0
  0
VERTEX
  8
0
 10
2.29958
 20
2.86442
 30
0.0
 40
0
 41
0
  0
VERTEX
  8
0
 10
2.30263
 20
2.86296
 30
0.0
 40
0
 41
0
  0
VERTEX
  8
0
 10
2.30311
 20
2.86268
 30
0.0
 40
0
 41
0
  0
VERTEX
  8
0
 10
2.30354
 20
2.86247
 30
0.0
 40
0
 41
0
  0
VERTEX
  8
0
 10
2.30686
 20
2.86094
 30
0.0
 40
0
 41
0
  0
VERTEX
  8
0
 10
2.30707
 20
2.86089
 30
0.0
 40
0
 41
0
  0
VERTEX
  8
0
 10
2.30735
 20
2.86083
 30
0.0
 40
0
 41
0
  0
VERTEX
  8
0
 10
2.30994
 20
2.8604
 30
0.0
 40
0
 41
0
  0
VERTEX
  8
0
 10
2.31082
 20
2.8604
 30
0.0
 40
0
 41
0
  0
VERTEX
  8
0
 10
2.31287
 20
2.8604
 30
0.0
 40
0
 41
0
  0
VERTEX
  8
0
 10
2.31862
 20
2.86356
 30
0.0
 40
0
 41
0
  0
VERTEX
  8
0
 10
2.31922
 20
2.86415
 30
0.0
 40
0
 41
0
  0
VERTEX
  8
0
 10
2.31982
 20
2.86481
 30
0.0
 40
0
 41
0
  0
VERTEX
  8
0
 10
2.32281
 20
2.87099
 30
0.0
 40
0
 41
0
  0
VERTEX
  8
0
 10
2.32281
 20
2.87299
 30
0.0
 40
0
 41
0
  0
VERTEX
  8
0
 10
2.32281
 20
2.87483
 30
0.0
 40
0
 41
0
  0
VERTEX
  8
0
 10
2.32146
 20
2.87972
 30
0.0
 40
0
 41
0
  0
VERTEX
  8
0
 10
2.32118
 20
2.88032
 30
0.0
 40
0
 41
0
  0
VERTEX
  8
0
 10
2.32096
 20
2.88075
 30
0.0
 40
0
 41
0
  0
VERTEX
  8
0
 10
2.31868
 20
2.88411
 30
0.0
 40
0
 41
0
  0
VERTEX
  8
0
 10
2.31847
 20
2.88433
 30
0.0
 40
0
 41
0
  0
VERTEX
  8
0
 10
2.31808
 20
2.88465
 30
0.0
 40
0
 41
0
  0
VERTEX
  8
0
 10
2.31342
 20
2.88758
 30
0.0
 40
0
 41
0
  0
VERTEX
  8
0
 10
2.31282
 20
2.88781
 30
0.0
 40
0
 41
0
  0
VERTEX
  8
0
 10
2.31222
 20
2.88807
 30
0.0
 40
0
 41
0
  0
VERTEX
  8
0
 10
2.30724
 20
2.88932
 30
0.0
 40
0
 41
0
  0
VERTEX
  8
0
 10
2.30561
 20
2.88932
 30
0.0
 40
0
 41
0
  0
VERTEX
  8
0
 10
2.30404
 20
2.88932
 30
0.0
 40
0
 41
0
  0
VERTEX
  8
0
 10
2.30404
 20
2.89079
 30
0.0
 40
0
 41
0
  0
VERTEX
  8
0
 10
2.30464
 20
2.8909
 30
0.0
 40
0
 41
0
  0
VERTEX
  8
0
 10
2.31093
 20
2.89312
 30
0.0
 40
0
 41
0
  0
VERTEX
  8
0
 10
2.31158
 20
2.89344
 30
0.0
 40
0
 41
0
  0
VERTEX
  8
0
 10
2.31218
 20
2.89382
 30
0.0
 40
0
 41
0
  0
VERTEX
  8
0
 10
2.31674
 20
2.89833
 30
0.0
 40
0
 41
0
  0
VERTEX
  8
0
 10
2.31706
 20
2.89882
 30
0.0
 40
0
 41
0
  0
VERTEX
  8
0
 10
2.31733
 20
2.89936
 30
0.0
 40
0
 41
0
  0
VERTEX
  8
0
 10
2.31879
 20
2.90414
 30
0.0
 40
0
 41
0
  0
VERTEX
  8
0
 10
2.31879
 20
2.90571
 30
0.0
 40
0
 41
0
  0
VERTEX
  8
0
 10
2.31879
 20
2.90771
 30
0.0
 40
0
 41
0
  0
VERTEX
  8
0
 10
2.31619
 20
2.91314
 30
0.0
 40
0
 41
0
  0
VERTEX
  8
0
 10
2.31569
 20
2.91363
 30
0.0
 40
0
 41
0
  0
VERTEX
  8
0
 10
2.31515
 20
2.91417
 30
0.0
 40
0
 41
0
  0
VERTEX
  8
0
 10
2.30985
 20
2.91661
 30
0.0
 40
0
 41
0
  0
VERTEX
  8
0
 10
2.30811
 20
2.91661
 30
0.0
 40
0
 41
0
  0
VERTEX
  8
0
 10
2.30501
 20
2.91661
 30
0.0
 40
0
 41
0
  0
VERTEX
  8
0
 10
2.2966
 20
2.9101
 30
0.0
 40
0
 41
0
  0
VERTEX
  8
0
 10
2.29579
 20
2.90875
 30
0.0
 40
0
 41
0
  0
VERTEX
  8
0
 10
2.29422
 20
2.9095
 30
0.0
 40
0
 41
0
  0
SEQEND
 8
0
  0
POLYLINE
  8
0
 62
     0
 66
     1
 10
0
 20
0
 30
0.0
 70
     1
 40
0
 41
0
  0
VERTEX
  8
0
 10
2.36518
 20
2.92492
 30
0.0
 40
0
 41
0
  0
VERTEX
  8
0
 10
2.34185
 20
2.85607
 30
0.0
 40
0
 41
0
  0
VERTEX
  8
0
 10
2.33806
 20
2.85607
 30
0.0
 40
0
 41
0
  0
VERTEX
  8
0
 10
2.36139
 20
2.92492
 30
0.0
 40
0
 41
0
  0
VERTEX
  8
0
 10
2.36518
 20
2.92492
 30
0.0
 40
0
 41
0
  0
SEQEND
 8
0
  0
POLYLINE
  8
0
 62
     0
 66
     1
 10
0
 20
0
 30
0.0
 70
     1
 40
0
 41
0
  0
VERTEX
  8
0
 10
2.37631
 20
2.91542
 30
0.0
 40
0
 41
0
  0
VERTEX
  8
0
 10
2.39199
 20
2.92307
 30
0.0
 40
0
 41
0
  0
VERTEX
  8
0
 10
2.39356
 20
2.92307
 30
0.0
 40
0
 41
0
  0
VERTEX
  8
0
 10
2.39356
 20
2.86871
 30
0.0
 40
0
 41
0
  0
VERTEX
  8
0
 10
2.39356
 20
2.86703
 30
0.0
 40
0
 41
0
  0
VERTEX
  8
0
 10
2.39387
 20
2.86225
 30
0.0
 40
0
 41
0
  0
VERTEX
  8
0
 10
2.39399
 20
2.86199
 30
0.0
 40
0
 41
0
  0
VERTEX
  8
0
 10
2.39404
 20
2.86176
 30
0.0
 40
0
 41
0
  0
VERTEX
  8
0
 10
2.39561
 20
2.86008
 30
0.0
 40
0
 41
0
  0
VERTEX
  8
0
 10
2.39589
 20
2.85992
 30
0.0
 40
0
 41
0
  0
VERTEX
  8
0
 10
2.39611
 20
2.85981
 30
0.0
 40
0
 41
0
  0
VERTEX
  8
0
 10
2.40093
 20
2.85921
 30
0.0
 40
0
 41
0
  0
VERTEX
  8
0
 10
2.40169
 20
2.85915
 30
0.0
 40
0
 41
0
  0
VERTEX
  8
0
 10
2.40169
 20
2.85736
 30
0.0
 40
0
 41
0
  0
VERTEX
  8
0
 10
2.37744
 20
2.85736
 30
0.0
 40
0
 41
0
  0
VERTEX
  8
0
 10
2.37744
 20
2.85915
 30
0.0
 40
0
 41
0
  0
VERTEX
  8
0
 10
2.37819
 20
2.85921
 30
0.0
 40
0
 41
0
  0
VERTEX
  8
0
 10
2.38308
 20
2.85981
 30
0.0
 40
0
 41
0
  0
VERTEX
  8
0
 10
2.38336
 20
2.85992
 30
0.0
 40
0
 41
0
  0
VERTEX
  8
0
 10
2.38357
 20
2.86008
 30
0.0
 40
0
 41
0
  0
VERTEX
  8
0
 10
2.3851
 20
2.8616
 30
0.0
 40
0
 41
0
  0
VERTEX
  8
0
 10
2.38519
 20
2.86176
 30
0.0
 40
0
 41
0
  0
VERTEX
  8
0
 10
2.38525
 20
2.86199
 30
0.0
 40
0
 41
0
  0
VERTEX
  8
0
 10
2.38569
 20
2.86703
 30
0.0
 40
0
 41
0
  0
VERTEX
  8
0
 10
2.38569
 20
2.86871
 30
0.0
 40
0
 41
0
  0
VERTEX
  8
0
 10
2.38569
 20
2.90349
 30
0.0
 40
0
 41
0
  0
VERTEX
  8
0
 10
2.38569
 20
2.90576
 30
0.0
 40
0
 41
0
  0
VERTEX
  8
0
 10
2.38531
 20
2.91217
 30
0.0
 40
0
 41
0
  0
VERTEX
  8
0
 10
2.38525
 20
2.91249
 30
0.0
 40
0
 41
0
  0
VERTEX
  8
0
 10
2.38519
 20
2.91276
 30
0.0
 40
0
 41
0
  0
VERTEX
  8
0
 10
2.38411
 20
2.91461
 30
0.0
 40
0
 41
0
  0
VERTEX
  8
0
 10
2.384
 20
2.91471
 30
0.0
 40
0
 41
0
  0
VERTEX
  8
0
 10
2.38385
 20
2.91488
 30
0.0
 40
0
 41
0
  0
VERTEX
  8
0
 10
2.38238
 20
2.91542
 30
0.0
 40
0
 41
0
  0
VERTEX
  8
0
 10
2.38194
 20
2.91542
 30
0.0
 40
0
 41
0
  0
VERTEX
  8
0
 10
2.38069
 20
2.91542
 30
0.0
 40
0
 41
0
  0
VERTEX
  8
0
 10
2.3775
 20
2.91422
 30
0.0
 40
0
 41
0
  0
VERTEX
  8
0
 10
2.37701
 20
2.91396
 30
0.0
 40
0
 41
0
  0
VERTEX
  8
0
 10
2.37631
 20
2.91542
 30
0.0
 40
0
 41
0
  0
SEQEND
 8
0
  0
POLYLINE
  8
0
 62
     0
 66
     1
 10
0
 20
0
 30
0.0
 70
     1
 40
0
 41
0
  0
VERTEX
  8
0
 10
2.45708
 20
2.92307
 30
0.0
 40
0
 41
0
  0
VERTEX
  8
0
 10
2.45708
 20
2.92133
 30
0.0
 40
0
 41
0
  0
VERTEX
  8
0
 10
2.45606
 20
2.92122
 30
0.0
 40
0
 41
0
  0
VERTEX
  8
0
 10
2.44754
 20
2.91917
 30
0.0
 40
0
 41
0
  0
VERTEX
  8
0
 10
2.44689
 20
2.91883
 30
0.0
 40
0
 41
0
  0
VERTEX
  8
0
 10
2.44618
 20
2.91857
 30
0.0
 40
0
 41
0
  0
VERTEX
  8
0
 10
2.43967
 20
2.91374
 30
0.0
 40
0
 41
0
  0
VERTEX
  8
0
 10
2.43907
 20
2.91308
 30
0.0
 40
0
 41
0
  0
VERTEX
  8
0
 10
2.43842
 20
2.91249
 30
0.0
 40
0
 41
0
  0
VERTEX
  8
0
 10
2.43306
 20
2.90539
 30
0.0
 40
0
 41
0
  0
VERTEX
  8
0
 10
2.43261
 20
2.90457
 30
0.0
 40
0
 41
0
  0
VERTEX
  8
0
 10
2.43218
 20
2.90381
 30
0.0
 40
0
 41
0
  0
VERTEX
  8
0
 10
2.42865
 20
2.89442
 30
0.0
 40
0
 41
0
  0
VERTEX
  8
0
 10
2.42839
 20
2.89333
 30
0.0
 40
0
 41
0
  0
VERTEX
  8
0
 10
2.42953
 20
2.89415
 30
0.0
 40
0
 41
0
  0
VERTEX
  8
0
 10
2.43896
 20
2.898
 30
0.0
 40
0
 41
0
  0
VERTEX
  8
0
 10
2.44211
 20
2.898
 30
0.0
 40
0
 41
0
  0
VERTEX
  8
0
 10
2.44493
 20
2.898
 30
0.0
 40
0
 41
0
  0
VERTEX
  8
0
 10
2.45275
 20
2.89361
 30
0.0
 40
0
 41
0
  0
VERTEX
  8
0
 10
2.45356
 20
2.89268
 30
0.0
 40
0
 41
0
  0
VERTEX
  8
0
 10
2.45432
 20
2.89182
 30
0.0
 40
0
 41
0
  0
VERTEX
  8
0
 10
2.45839
 20
2.88222
 30
0.0
 40
0
 41
0
  0
VERTEX
  8
0
 10
2.45839
 20
2.87901
 30
0.0
 40
0
 41
0
  0
VERTEX
  8
0
 10
2.45839
 20
2.87537
 30
0.0
 40
0
 41
0
  0
VERTEX
  8
0
 10
2.45432
 20
2.86546
 30
0.0
 40
0
 41
0
  0
VERTEX
  8
0
 10
2.4535
 20
2.86431
 30
0.0
 40
0
 41
0
  0
VERTEX
  8
0
 10
2.45253
 20
2.86301
 30
0.0
 40
0
 41
0
  0
VERTEX
  8
0
 10
2.44157
 20
2.85622
 30
0.0
 40
0
 41
0
  0
VERTEX
  8
0
 10
2.43793
 20
2.85622
 30
0.0
 40
0
 41
0
  0
VERTEX
  8
0
 10
2.43511
 20
2.85622
 30
0.0
 40
0
 41
0
  0
VERTEX
  8
0
 10
2.42746
 20
2.85992
 30
0.0
 40
0
 41
0
  0
VERTEX
  8
0
 10
2.42671
 20
2.86062
 30
0.0
 40
0
 41
0
  0
VERTEX
  8
0
 10
2.42518
 20
2.86203
 30
0.0
 40
0
 41
0
  0
VERTEX
  8
0
 10
2.41769
 20
2.8775
 30
0.0
 40
0
 41
0
  0
VERTEX
  8
0
 10
2.41769
 20
2.88265
 30
0.0
 40
0
 41
0
  0
VERTEX
  8
0
 10
2.41769
 20
2.88678
 30
0.0
 40
0
 41
0
  0
VERTEX
  8
0
 10
2.42057
 20
2.89779
 30
0.0
 40
0
 41
0
  0
VERTEX
  8
0
 10
2.42117
 20
2.89903
 30
0.0
 40
0
 41
0
  0
VERTEX
  8
0
 10
2.42171
 20
2.90033
 30
0.0
 40
0
 41
0
  0
VERTEX
  8
0
 10
2.43001
 20
2.91189
 30
0.0
 40
0
 41
0
  0
VERTEX
  8
0
 10
2.4311
 20
2.91288
 30
0.0
 40
0
 41
0
  0
VERTEX
  8
0
 10
2.43213
 20
2.9139
 30
0.0
 40
0
 41
0
  0
VERTEX
  8
0
 10
2.44239
 20
2.92068
 30
0.0
 40
0
 41
0
  0
VERTEX
  8
0
 10
2.44342
 20
2.92101
 30
0.0
 40
0
 41
0
  0
VERTEX
  8
0
 10
2.44439
 20
2.92139
 30
0.0
 40
0
 41
0
  0
VERTEX
  8
0
 10
2.45188
 20
2.92307
 30
0.0
 40
0
 41
0
  0
VERTEX
  8
0
 10
2.45437
 20
2.92307
 30
0.0
 40
0
 41
0
  0
VERTEX
  8
0
 10
2.45708
 20
2.92307
 30
0.0
 40
0
 41
0
  0
SEQEND
 8
0
  0
POLYLINE
  8
0
 62
     0
 66
     1
 10
0
 20
0
 30
0.0
 70
     1
 40
0
 41
0
  0
VERTEX
  8
0
 10
2.42757
 20
2.88986
 30
0.0
 40
0
 41
0
  0
VERTEX
  8
0
 10
2.4274
 20
2.88883
 30
0.0
 40
0
 41
0
  0
VERTEX
  8
0
 10
2.42671
 20
2.88183
 30
0.0
 40
0
 41
0
  0
VERTEX
  8
0
 10
2.42671
 20
2.8795
 30
0.0
 40
0
 41
0
  0
VERTEX
  8
0
 10
2.42671
 20
2.87706
 30
0.0
 40
0
 41
0
  0
VERTEX
  8
0
 10
2.42811
 20
2.8705
 30
0.0
 40
0
 41
0
  0
VERTEX
  8
0
 10
2.42839
 20
2.86957
 30
0.0
 40
0
 41
0
  0
VERTEX
  8
0
 10
2.42865
 20
2.86871
 30
0.0
 40
0
 41
0
  0
VERTEX
  8
0
 10
2.43283
 20
2.86165
 30
0.0
 40
0
 41
0
  0
VERTEX
  8
0
 10
2.43343
 20
2.86111
 30
0.0
 40
0
 41
0
  0
VERTEX
  8
0
 10
2.43381
 20
2.86079
 30
0.0
 40
0
 41
0
  0
VERTEX
  8
0
 10
2.43787
 20
2.85889
 30
0.0
 40
0
 41
0
  0
VERTEX
  8
0
 10
2.43929
 20
2.85889
 30
0.0
 40
0
 41
0
  0
VERTEX
  8
0
 10
2.44114
 20
2.85889
 30
0.0
 40
0
 41
0
  0
VERTEX
  8
0
 10
2.44613
 20
2.86214
 30
0.0
 40
0
 41
0
  0
VERTEX
  8
0
 10
2.44667
 20
2.86279
 30
0.0
 40
0
 41
0
  0
VERTEX
  8
0
 10
2.44721
 20
2.86344
 30
0.0
 40
0
 41
0
  0
VERTEX
  8
0
 10
2.44993
 20
2.87131
 30
0.0
 40
0
 41
0
  0
VERTEX
  8
0
 10
2.44993
 20
2.87392
 30
0.0
 40
0
 41
0
  0
VERTEX
  8
0
 10
2.44993
 20
2.87744
 30
0.0
 40
0
 41
0
  0
VERTEX
  8
0
 10
2.44726
 20
2.88699
 30
0.0
 40
0
 41
0
  0
VERTEX
  8
0
 10
2.44672
 20
2.88797
 30
0.0
 40
0
 41
0
  0
VERTEX
  8
0
 10
2.44618
 20
2.889
 30
0.0
 40
0
 41
0
  0
VERTEX
  8
0
 10
2.43967
 20
2.89387
 30
0.0
 40
0
 41
0
  0
VERTEX
  8
0
 10
2.43756
 20
2.89387
 30
0.0
 40
0
 41
0
  0
VERTEX
  8
0
 10
2.43658
 20
2.89387
 30
0.0
 40
0
 41
0
  0
VERTEX
  8
0
 10
2.43403
 20
2.89328
 30
0.0
 40
0
 41
0
  0
VERTEX
  8
0
 10
2.43371
 20
2.89312
 30
0.0
 40
0
 41
0
  0
VERTEX
  8
0
 10
2.43332
 20
2.89301
 30
0.0
 40
0
 41
0
  0
VERTEX
  8
0
 10
2.42822
 20
2.89031
 30
0.0
 40
0
 41
0
  0
VERTEX
  8
0
 10
2.42757
 20
2.88986
 30
0.0
 40
0
 41
0
  0
SEQEND
 8
0
  0
POLYLINE
  8
0
 62
     0
 66
     1
 10
0
 20
0
 30
0.0
 40
0.504
 41
0.504
  0
VERTEX
  8
0
 10
1.97233
 20
1.68511
 30
0.0
 40
0.007
 41
0.007
  0
VERTEX
  8
0
 10
1.97233
 20
2.79189
 30
0.0
 40
0.007
 41
0.007
  0
VERTEX
  8
0
 10
2.70779
 20
2.79633
 30
0.0
 40
0.007
 41
0.007
  0
SEQEND
 8
0
  0
POLYLINE
  8
0
 62
     0
 66
     1
 10
0
 20
0
 30
0.0
 70
     1
 40
0.50003
 41
0.50003
  0
VERTEX
  8
0
 10
1.97179
 20
1.7321
 30
0.0
 40
0.00694486
 41
0.00694486
  0
VERTEX
  8
0
 10
1.97179
 20
1.62662
 30
0.0
 40
0.00694486
 41
0.00694486
  0
VERTEX
  8
0
 10
2.06451
 20
1.62662
 30
0.0
 40
0.00694486
 41
0.00694486
  0
VERTEX
  8
0
 10
2.06451
 20
1.67622
 30
0.0
 40
0.00694486
 41
0.00694486
  0
VERTEX
  8
0
 10
2.0874
 20
1.67622
 30
0.0
 40
0.00694486
 41
0.00694486
  0
VERTEX
  8
0
 10
2.08669
 20
1.68474
 30
0.0
 40
0.00694486
 41
0.00694486
  0
VERTEX
  8
0
 10
2.08897
 20
1.7105
 30
0.0
 40
0.00694486
 41
0.00694486
  0
VERTEX
  8
0
 10
2.1001
 20
1.73654
 30
0.0
 40
0.00694486
 41
0.00694486
  0
VERTEX
  8
0
 10
2.12071
 20
1.75435
 30
0.0
 40
0.00694486
 41
0.00694486
  0
VERTEX
  8
0
 10
2.14312
 20
1.76264
 30
0.0
 40
0.00694486
 41
0.00694486
  0
VERTEX
  8
0
 10
2.15088
 20
1.76383
 30
0.0
 40
0.00694486
 41
0.00694486
  0
VERTEX
  8
0
 10
2.15088
 20
1.82482
 30
0.0
 40
0.00694486
 41
0.00694486
  0
VERTEX
  8
0
 10
2.16656
 20
1.83024
 30
0.0
 40
0.00694486
 41
0.00694486
  0
VERTEX
  8
0
 10
2.2105
 20
1.85596
 30
0.0
 40
0.00694486
 41
0.00694486
  0
VERTEX
  8
0
 10
2.24669
 20
1.90039
 30
0.0
 40
0.00694486
 41
0.00694486
  0
VERTEX
  8
0
 10
2.25939
 20
1.95817
 30
0.0
 40
0.00694486
 41
0.00694486
  0
VERTEX
  8
0
 10
2.25358
 20
2.01221
 30
0.0
 40
0.00694486
 41
0.00694486
  0
VERTEX
  8
0
 10
2.24864
 20
2.02929
 30
0.0
 40
0.00694486
 41
0.00694486
  0
VERTEX
  8
0
 10
2.27794
 20
2.04096
 30
0.0
 40
0.00694486
 41
0.00694486
  0
VERTEX
  8
0
 10
2.36068
 20
2.08931
 30
0.0
 40
0.00694486
 41
0.00694486
  0
VERTEX
  8
0
 10
2.41758
 20
2.15224
 30
0.0
 40
0.00694486
 41
0.00694486
  0
VERTEX
  8
0
 10
2.43869
 20
2.21724
 30
0.0
 40
0.00694486
 41
0.00694486
  0
VERTEX
  8
0
 10
2.44325
 20
2.28315
 30
0.0
 40
0.00694486
 41
0.00694486
  0
VERTEX
  8
0
 10
2.45053
 20
2.34907
 30
0.0
 40
0.00694486
 41
0.00694486
  0
VERTEX
  8
0
 10
2.47987
 20
2.41385
 30
0.0
 40
0.00694486
 41
0.00694486
  0
VERTEX
  8
0
 10
2.55051
 20
2.47651
 30
0.0
 40
0.00694486
 41
0.00694486
  0
VERTEX
  8
0
 10
2.64779
 20
2.52442
 30
0.0
 40
0.00694486
 41
0.00694486
  0
VERTEX
  8
0
 10
2.68175
 20
2.53603
 30
0.0
 40
0.00694486
 41
0.00694486
  0
VERTEX
  8
0
 10
2.68175
 20
2.61865
 30
0.0
 40
0.00694486
 41
0.00694486
  0
VERTEX
  8
0
 10
2.69314
 20
2.61974
 30
0.0
 40
0.00694486
 41
0.00694486
  0
VERTEX
  8
0
 10
2.72689
 20
2.62961
 30
0.0
 40
0.00694486
 41
0.00694486
  0
VERTEX
  8
0
 10
2.75478
 20
2.65164
 30
0.0
 40
0.00694486
 41
0.00694486
  0
VERTEX
  8
0
 10
2.76671
 20
2.68386
 30
0.0
 40
0.00694486
 41
0.00694486
  0
VERTEX
  8
0
 10
2.76633
 20
2.71522
 30
0.0
 40
0.00694486
 41
0.00694486
  0
VERTEX
  8
0
 10
2.76432
 20
2.72526
 30
0.0
 40
0.00694486
 41
0.00694486
  0
VERTEX
  8
0
 10
2.81131
 20
2.72526
 30
0.0
 40
0.00694486
 41
0.00694486
  0
VERTEX
  8
0
 10
2.81131
 20
2.79893
 30
0.0
 40
0.00694486
 41
0.00694486
  0
VERTEX
  8
0
 10
2.69189
 20
2.79135
 30
0.0
 40
0.00694486
 41
0.00694486
  0
VERTEX
  8
0
 10
1.97179
 20
1.7321
 30
0.0
 40
0.00694486
 41
0.00694486
  0
SEQEND
 8
0
  0
ENDSEC
  0
EOF
