  0
SECTION
  2
HEADER
  9
$ACADVER
  1
AC1009
  9
$EXTMIN
 10
0.0
 20
0.0
 30
0.0
  9
$EXTMAX
 10
1000.0
 20
1000.0
 30
0.0
  9
$FILLMODE
 70
 0
  9
$SPLFRAME
 70
 1
  0
ENDSEC
  0
SECTION
  2
TABLES
  0
TABLE
  2
LAYER
 70
1
  0
LAYER
  2
0
 70
     0
 62
     7
  6
CONTINUOUS
  0
ENDTAB
  0
ENDSEC
  0
SECTION
  2
ENTITIES
  0
POLYLINE
  8
0
 62
     8
 66
     1
 10
0
 20
0
 30
0.0
 70
     1
 40
0
 41
0
  0
VERTEX
  8
0
 10
2.26926
 20
3.0981
 30
0.0
 40
0
 41
0
  0
VERTEX
  8
0
 10
2.76926
 20
2.8481
 30
0.0
 40
0
 41
0
  0
VERTEX
  8
0
 10
2.89626
 20
2.8481
 30
0.0
 40
0
 41
0
  0
VERTEX
  8
0
 10
2.39626
 20
3.0981
 30
0.0
 40
0
 41
0
  0
VERTEX
  8
0
 10
2.26926
 20
3.0981
 30
0.0
 40
0
 41
0
  0
SEQEND
 8
0
  0
POLYLINE
  8
0
 62
     0
 66
     1
 10
0
 20
0
 30
0.0
 70
     1
 40
1.008
 41
1.008
  0
VERTEX
  8
0
 10
2.26926
 20
3.0981
 30
0.0
 40
0.014
 41
0.014
  0
VERTEX
  8
0
 10
2.76926
 20
2.8481
 30
0.0
 40
0.014
 41
0.014
  0
VERTEX
  8
0
 10
2.89626
 20
2.8481
 30
0.0
 40
0.014
 41
0.014
  0
VERTEX
  8
0
 10
2.39626
 20
3.0981
 30
0.0
 40
0.014
 41
0.014
  0
VERTEX
  8
0
 10
2.26926
 20
3.0981
 30
0.0
 40
0.014
 41
0.014
  0
SEQEND
 8
0
  0
POLYLINE
  8
0
 62
     254
 66
     1
 10
0
 20
0
 30
0.0
 70
     1
 40
0
 41
0
  0
VERTEX
  8
0
 10
2.39626
 20
3.0981
 30
0.0
 40
0
 41
0
  0
VERTEX
  8
0
 10
2.89626
 20
2.8481
 30
0.0
 40
0
 41
0
  0
VERTEX
  8
0
 10
2.9075
 20
2.8775
 30
0.0
 40
0
 41
0
  0
VERTEX
  8
0
 10
2.4075
 20
3.1275
 30
0.0
 40
0
 41
0
  0
VERTEX
  8
0
 10
2.39626
 20
3.0981
 30
0.0
 40
0
 41
0
  0
SEQEND
 8
0
  0
POLYLINE
  8
0
 62
     254
 66
     1
 10
0
 20
0
 30
0.0
 70
     1
 40
0
 41
0
  0
VERTEX
  8
0
 10
2.4075
 20
3.1275
 30
0.0
 40
0
 41
0
  0
VERTEX
  8
0
 10
2.9075
 20
2.8775
 30
0.0
 40
0
 41
0
  0
VERTEX
  8
0
 10
2.92019
 20
2.90386
 30
0.0
 40
0
 41
0
  0
VERTEX
  8
0
 10
2.42019
 20
3.15386
 30
0.0
 40
0
 41
0
  0
VERTEX
  8
0
 10
2.4075
 20
3.1275
 30
0.0
 40
0
 41
0
  0
SEQEND
 8
0
  0
POLYLINE
  8
0
 62
     254
 66
     1
 10
0
 20
0
 30
0.0
 70
     1
 40
0
 41
0
  0
VERTEX
  8
0
 10
2.42019
 20
3.15386
 30
0.0
 40
0
 41
0
  0
VERTEX
  8
0
 10
2.92019
 20
2.90386
 30
0.0
 40
0
 41
0
  0
VERTEX
  8
0
 10
2.93414
 20
2.9274
 30
0.0
 40
0
 41
0
  0
VERTEX
  8
0
 10
2.43414
 20
3.1774
 30
0.0
 40
0
 41
0
  0
VERTEX
  8
0
 10
2.42019
 20
3.15386
 30
0.0
 40
0
 41
0
  0
SEQEND
 8
0
  0
POLYLINE
  8
0
 62
     254
 66
     1
 10
0
 20
0
 30
0.0
 70
     1
 40
0
 41
0
  0
VERTEX
  8
0
 10
2.43414
 20
3.1774
 30
0.0
 40
0
 41
0
  0
VERTEX
  8
0
 10
2.93414
 20
2.9274
 30
0.0
 40
0
 41
0
  0
VERTEX
  8
0
 10
2.94928
 20
2.94835
 30
0.0
 40
0
 41
0
  0
VERTEX
  8
0
 10
2.44933
 20
3.19835
 30
0.0
 40
0
 41
0
  0
VERTEX
  8
0
 10
2.43414
 20
3.1774
 30
0.0
 40
0
 41
0
  0
SEQEND
 8
0
  0
POLYLINE
  8
0
 62
     254
 66
     1
 10
0
 20
0
 30
0.0
 70
     1
 40
0
 41
0
  0
VERTEX
  8
0
 10
2.44933
 20
3.19835
 30
0.0
 40
0
 41
0
  0
VERTEX
  8
0
 10
2.94928
 20
2.94835
 30
0.0
 40
0
 41
0
  0
VERTEX
  8
0
 10
2.9655
 20
2.96685
 30
0.0
 40
0
 41
0
  0
VERTEX
  8
0
 10
2.46556
 20
3.21685
 30
0.0
 40
0
 41
0
  0
VERTEX
  8
0
 10
2.44933
 20
3.19835
 30
0.0
 40
0
 41
0
  0
SEQEND
 8
0
  0
POLYLINE
  8
0
 62
     254
 66
     1
 10
0
 20
0
 30
0.0
 70
     1
 40
0
 41
0
  0
VERTEX
  8
0
 10
2.46556
 20
3.21685
 30
0.0
 40
0
 41
0
  0
VERTEX
  8
0
 10
2.9655
 20
2.96685
 30
0.0
 40
0
 41
0
  0
VERTEX
  8
0
 10
2.98269
 20
2.98307
 30
0.0
 40
0
 41
0
  0
VERTEX
  8
0
 10
2.48269
 20
3.23307
 30
0.0
 40
0
 41
0
  0
VERTEX
  8
0
 10
2.46556
 20
3.21685
 30
0.0
 40
0
 41
0
  0
SEQEND
 8
0
  0
POLYLINE
  8
0
 62
     254
 66
     1
 10
0
 20
0
 30
0.0
 70
     1
 40
0
 41
0
  0
VERTEX
  8
0
 10
2.48269
 20
3.23307
 30
0.0
 40
0
 41
0
  0
VERTEX
  8
0
 10
2.98269
 20
2.98307
 30
0.0
 40
0
 41
0
  0
VERTEX
  8
0
 10
3.00065
 20
2.99718
 30
0.0
 40
0
 41
0
  0
VERTEX
  8
0
 10
2.50071
 20
3.24718
 30
0.0
 40
0
 41
0
  0
VERTEX
  8
0
 10
2.48269
 20
3.23307
 30
0.0
 40
0
 41
0
  0
SEQEND
 8
0
  0
POLYLINE
  8
0
 62
     33
 66
     1
 10
0
 20
0
 30
0.0
 70
     1
 40
0
 41
0
  0
VERTEX
  8
0
 10
2.50071
 20
3.24718
 30
0.0
 40
0
 41
0
  0
VERTEX
  8
0
 10
3.00065
 20
2.99718
 30
0.0
 40
0
 41
0
  0
VERTEX
  8
0
 10
3.01938
 20
3.0095
 30
0.0
 40
0
 41
0
  0
VERTEX
  8
0
 10
2.51938
 20
3.2595
 30
0.0
 40
0
 41
0
  0
VERTEX
  8
0
 10
2.50071
 20
3.24718
 30
0.0
 40
0
 41
0
  0
SEQEND
 8
0
  0
POLYLINE
  8
0
 62
     253
 66
     1
 10
0
 20
0
 30
0.0
 70
     1
 40
0
 41
0
  0
VERTEX
  8
0
 10
2.51938
 20
3.2595
 30
0.0
 40
0
 41
0
  0
VERTEX
  8
0
 10
3.01938
 20
3.0095
 30
0.0
 40
0
 41
0
  0
VERTEX
  8
0
 10
3.03874
 20
3.02001
 30
0.0
 40
0
 41
0
  0
VERTEX
  8
0
 10
2.53874
 20
3.27001
 30
0.0
 40
0
 41
0
  0
VERTEX
  8
0
 10
2.51938
 20
3.2595
 30
0.0
 40
0
 41
0
  0
SEQEND
 8
0
  0
POLYLINE
  8
0
 62
     253
 66
     1
 10
0
 20
0
 30
0.0
 70
     1
 40
0
 41
0
  0
VERTEX
  8
0
 10
2.53874
 20
3.27001
 30
0.0
 40
0
 41
0
  0
VERTEX
  8
0
 10
3.03874
 20
3.02001
 30
0.0
 40
0
 41
0
  0
VERTEX
  8
0
 10
3.05854
 20
3.02908
 30
0.0
 40
0
 41
0
  0
VERTEX
  8
0
 10
2.55854
 20
3.27908
 30
0.0
 40
0
 41
0
  0
VERTEX
  8
0
 10
2.53874
 20
3.27001
 30
0.0
 40
0
 41
0
  0
SEQEND
 8
0
  0
POLYLINE
  8
0
 62
     253
 66
     1
 10
0
 20
0
 30
0.0
 70
     1
 40
0
 41
0
  0
VERTEX
  8
0
 10
2.55854
 20
3.27908
 30
0.0
 40
0
 41
0
  0
VERTEX
  8
0
 10
3.05854
 20
3.02908
 30
0.0
 40
0
 41
0
  0
VERTEX
  8
0
 10
3.07872
 20
3.03683
 30
0.0
 40
0
 41
0
  0
VERTEX
  8
0
 10
2.57872
 20
3.28683
 30
0.0
 40
0
 41
0
  0
VERTEX
  8
0
 10
2.55854
 20
3.27908
 30
0.0
 40
0
 41
0
  0
SEQEND
 8
0
  0
POLYLINE
  8
0
 62
     9
 66
     1
 10
0
 20
0
 30
0.0
 70
     1
 40
0
 41
0
  0
VERTEX
  8
0
 10
2.57872
 20
3.28683
 30
0.0
 40
0
 41
0
  0
VERTEX
  8
0
 10
3.07872
 20
3.03683
 30
0.0
 40
0
 41
0
  0
VERTEX
  8
0
 10
3.09918
 20
3.04346
 30
0.0
 40
0
 41
0
  0
VERTEX
  8
0
 10
2.59918
 20
3.29346
 30
0.0
 40
0
 41
0
  0
VERTEX
  8
0
 10
2.57872
 20
3.28683
 30
0.0
 40
0
 41
0
  0
SEQEND
 8
0
  0
POLYLINE
  8
0
 62
     9
 66
     1
 10
0
 20
0
 30
0.0
 70
     1
 40
0
 41
0
  0
VERTEX
  8
0
 10
2.59918
 20
3.29346
 30
0.0
 40
0
 41
0
  0
VERTEX
  8
0
 10
3.09918
 20
3.04346
 30
0.0
 40
0
 41
0
  0
VERTEX
  8
0
 10
3.11974
 20
3.04915
 30
0.0
 40
0
 41
0
  0
VERTEX
  8
0
 10
2.61974
 20
3.29915
 30
0.0
 40
0
 41
0
  0
VERTEX
  8
0
 10
2.59918
 20
3.29346
 30
0.0
 40
0
 41
0
  0
SEQEND
 8
0
  0
POLYLINE
  8
0
 62
     252
 66
     1
 10
0
 20
0
 30
0.0
 70
     1
 40
0
 41
0
  0
VERTEX
  8
0
 10
2.61974
 20
3.29915
 30
0.0
 40
0
 41
0
  0
VERTEX
  8
0
 10
3.11974
 20
3.04915
 30
0.0
 40
0
 41
0
  0
VERTEX
  8
0
 10
3.14035
 20
3.0541
 30
0.0
 40
0
 41
0
  0
VERTEX
  8
0
 10
2.64035
 20
3.3041
 30
0.0
 40
0
 41
0
  0
VERTEX
  8
0
 10
2.61974
 20
3.29915
 30
0.0
 40
0
 41
0
  0
SEQEND
 8
0
  0
POLYLINE
  8
0
 62
     252
 66
     1
 10
0
 20
0
 30
0.0
 70
     1
 40
0
 41
0
  0
VERTEX
  8
0
 10
2.64035
 20
3.3041
 30
0.0
 40
0
 41
0
  0
VERTEX
  8
0
 10
3.14035
 20
3.0541
 30
0.0
 40
0
 41
0
  0
VERTEX
  8
0
 10
3.16092
 20
3.05849
 30
0.0
 40
0
 41
0
  0
VERTEX
  8
0
 10
2.66092
 20
3.30849
 30
0.0
 40
0
 41
0
  0
VERTEX
  8
0
 10
2.64035
 20
3.3041
 30
0.0
 40
0
 41
0
  0
SEQEND
 8
0
  0
POLYLINE
  8
0
 62
     252
 66
     1
 10
0
 20
0
 30
0.0
 70
     1
 40
0
 41
0
  0
VERTEX
  8
0
 10
2.66092
 20
3.30849
 30
0.0
 40
0
 41
0
  0
VERTEX
  8
0
 10
3.16092
 20
3.05849
 30
0.0
 40
0
 41
0
  0
VERTEX
  8
0
 10
3.18121
 20
3.0625
 30
0.0
 40
0
 41
0
  0
VERTEX
  8
0
 10
2.68121
 20
3.3125
 30
0.0
 40
0
 41
0
  0
VERTEX
  8
0
 10
2.66092
 20
3.30849
 30
0.0
 40
0
 41
0
  0
SEQEND
 8
0
  0
POLYLINE
  8
0
 62
     252
 66
     1
 10
0
 20
0
 30
0.0
 70
     1
 40
0
 41
0
  0
VERTEX
  8
0
 10
2.68121
 20
3.3125
 30
0.0
 40
0
 41
0
  0
VERTEX
  8
0
 10
3.18121
 20
3.0625
 30
0.0
 40
0
 41
0
  0
VERTEX
  8
0
 10
3.20122
 20
3.06629
 30
0.0
 40
0
 41
0
  0
VERTEX
  8
0
 10
2.70122
 20
3.31629
 30
0.0
 40
0
 41
0
  0
VERTEX
  8
0
 10
2.68121
 20
3.3125
 30
0.0
 40
0
 41
0
  0
SEQEND
 8
0
  0
POLYLINE
  8
0
 62
     252
 66
     1
 10
0
 20
0
 30
0.0
 70
     1
 40
0
 41
0
  0
VERTEX
  8
0
 10
2.70122
 20
3.31629
 30
0.0
 40
0
 41
0
  0
VERTEX
  8
0
 10
3.20122
 20
3.06629
 30
0.0
 40
0
 41
0
  0
VERTEX
  8
0
 10
3.22081
 20
3.0701
 30
0.0
 40
0
 41
0
  0
VERTEX
  8
0
 10
2.72081
 20
3.3201
 30
0.0
 40
0
 41
0
  0
VERTEX
  8
0
 10
2.70122
 20
3.31629
 30
0.0
 40
0
 41
0
  0
SEQEND
 8
0
  0
POLYLINE
  8
0
 62
     252
 66
     1
 10
0
 20
0
 30
0.0
 70
     1
 40
0
 41
0
  0
VERTEX
  8
0
 10
2.72081
 20
3.3201
 30
0.0
 40
0
 41
0
  0
VERTEX
  8
0
 10
3.22081
 20
3.0701
 30
0.0
 40
0
 41
0
  0
VERTEX
  8
0
 10
3.23986
 20
3.07411
 30
0.0
 40
0
 41
0
  0
VERTEX
  8
0
 10
2.73986
 20
3.32411
 30
0.0
 40
0
 41
0
  0
VERTEX
  8
0
 10
2.72081
 20
3.3201
 30
0.0
 40
0
 41
0
  0
SEQEND
 8
0
  0
POLYLINE
  8
0
 62
     252
 66
     1
 10
0
 20
0
 30
0.0
 70
     1
 40
0
 41
0
  0
VERTEX
  8
0
 10
2.73986
 20
3.32411
 30
0.0
 40
0
 41
0
  0
VERTEX
  8
0
 10
3.23986
 20
3.07411
 30
0.0
 40
0
 41
0
  0
VERTEX
  8
0
 10
3.25825
 20
3.0785
 30
0.0
 40
0
 41
0
  0
VERTEX
  8
0
 10
2.75825
 20
3.3285
 30
0.0
 40
0
 41
0
  0
VERTEX
  8
0
 10
2.73986
 20
3.32411
 30
0.0
 40
0
 41
0
  0
SEQEND
 8
0
  0
POLYLINE
  8
0
 62
     9
 66
     1
 10
0
 20
0
 30
0.0
 70
     1
 40
0
 41
0
  0
VERTEX
  8
0
 10
2.75825
 20
3.3285
 30
0.0
 40
0
 41
0
  0
VERTEX
  8
0
 10
3.25825
 20
3.0785
 30
0.0
 40
0
 41
0
  0
VERTEX
  8
0
 10
3.27582
 20
3.08344
 30
0.0
 40
0
 41
0
  0
VERTEX
  8
0
 10
2.77582
 20
3.33344
 30
0.0
 40
0
 41
0
  0
VERTEX
  8
0
 10
2.75825
 20
3.3285
 30
0.0
 40
0
 41
0
  0
SEQEND
 8
0
  0
POLYLINE
  8
0
 62
     9
 66
     1
 10
0
 20
0
 30
0.0
 70
     1
 40
0
 41
0
  0
VERTEX
  8
0
 10
2.77582
 20
3.33344
 30
0.0
 40
0
 41
0
  0
VERTEX
  8
0
 10
3.27582
 20
3.08344
 30
0.0
 40
0
 41
0
  0
VERTEX
  8
0
 10
3.29254
 20
3.08914
 30
0.0
 40
0
 41
0
  0
VERTEX
  8
0
 10
2.79254
 20
3.33914
 30
0.0
 40
0
 41
0
  0
VERTEX
  8
0
 10
2.77582
 20
3.33344
 30
0.0
 40
0
 41
0
  0
SEQEND
 8
0
  0
POLYLINE
  8
0
 62
     253
 66
     1
 10
0
 20
0
 30
0.0
 70
     1
 40
0
 41
0
  0
VERTEX
  8
0
 10
2.79254
 20
3.33914
 30
0.0
 40
0
 41
0
  0
VERTEX
  8
0
 10
3.29254
 20
3.08914
 30
0.0
 40
0
 41
0
  0
VERTEX
  8
0
 10
3.30826
 20
3.09581
 30
0.0
 40
0
 41
0
  0
VERTEX
  8
0
 10
2.80826
 20
3.34581
 30
0.0
 40
0
 41
0
  0
VERTEX
  8
0
 10
2.79254
 20
3.33914
 30
0.0
 40
0
 41
0
  0
SEQEND
 8
0
  0
POLYLINE
  8
0
 62
     253
 66
     1
 10
0
 20
0
 30
0.0
 70
     1
 40
0
 41
0
  0
VERTEX
  8
0
 10
2.80826
 20
3.34581
 30
0.0
 40
0
 41
0
  0
VERTEX
  8
0
 10
3.30826
 20
3.09581
 30
0.0
 40
0
 41
0
  0
VERTEX
  8
0
 10
3.32281
 20
3.10357
 30
0.0
 40
0
 41
0
  0
VERTEX
  8
0
 10
2.82281
 20
3.35357
 30
0.0
 40
0
 41
0
  0
VERTEX
  8
0
 10
2.80826
 20
3.34581
 30
0.0
 40
0
 41
0
  0
SEQEND
 8
0
  0
POLYLINE
  8
0
 62
     33
 66
     1
 10
0
 20
0
 30
0.0
 70
     1
 40
0
 41
0
  0
VERTEX
  8
0
 10
2.82281
 20
3.35357
 30
0.0
 40
0
 41
0
  0
VERTEX
  8
0
 10
3.32281
 20
3.10357
 30
0.0
 40
0
 41
0
  0
VERTEX
  8
0
 10
3.33615
 20
3.11268
 30
0.0
 40
0
 41
0
  0
VERTEX
  8
0
 10
2.83615
 20
3.36268
 30
0.0
 40
0
 41
0
  0
VERTEX
  8
0
 10
2.82281
 20
3.35357
 30
0.0
 40
0
 41
0
  0
SEQEND
 8
0
  0
POLYLINE
  8
0
 62
     254
 66
     1
 10
0
 20
0
 30
0.0
 70
     1
 40
0
 41
0
  0
VERTEX
  8
0
 10
2.83615
 20
3.36268
 30
0.0
 40
0
 41
0
  0
VERTEX
  8
0
 10
3.33615
 20
3.11268
 30
0.0
 40
0
 41
0
  0
VERTEX
  8
0
 10
3.34814
 20
3.12332
 30
0.0
 40
0
 41
0
  0
VERTEX
  8
0
 10
2.84814
 20
3.37332
 30
0.0
 40
0
 41
0
  0
VERTEX
  8
0
 10
2.83615
 20
3.36268
 30
0.0
 40
0
 41
0
  0
SEQEND
 8
0
  0
POLYLINE
  8
0
 62
     254
 66
     1
 10
0
 20
0
 30
0.0
 70
     1
 40
0
 41
0
  0
VERTEX
  8
0
 10
2.84814
 20
3.37332
 30
0.0
 40
0
 41
0
  0
VERTEX
  8
0
 10
3.34814
 20
3.12332
 30
0.0
 40
0
 41
0
  0
VERTEX
  8
0
 10
3.35867
 20
3.13558
 30
0.0
 40
0
 41
0
  0
VERTEX
  8
0
 10
2.85867
 20
3.38558
 30
0.0
 40
0
 41
0
  0
VERTEX
  8
0
 10
2.84814
 20
3.37332
 30
0.0
 40
0
 41
0
  0
SEQEND
 8
0
  0
POLYLINE
  8
0
 62
     254
 66
     1
 10
0
 20
0
 30
0.0
 70
     1
 40
0
 41
0
  0
VERTEX
  8
0
 10
2.85867
 20
3.38558
 30
0.0
 40
0
 41
0
  0
VERTEX
  8
0
 10
3.35867
 20
3.13558
 30
0.0
 40
0
 41
0
  0
VERTEX
  8
0
 10
3.36762
 20
3.14979
 30
0.0
 40
0
 41
0
  0
VERTEX
  8
0
 10
2.86762
 20
3.39979
 30
0.0
 40
0
 41
0
  0
VERTEX
  8
0
 10
2.85867
 20
3.38558
 30
0.0
 40
0
 41
0
  0
SEQEND
 8
0
  0
POLYLINE
  8
0
 62
     254
 66
     1
 10
0
 20
0
 30
0.0
 70
     1
 40
0
 41
0
  0
VERTEX
  8
0
 10
2.86762
 20
3.39979
 30
0.0
 40
0
 41
0
  0
VERTEX
  8
0
 10
3.36762
 20
3.14979
 30
0.0
 40
0
 41
0
  0
VERTEX
  8
0
 10
3.37483
 20
3.16607
 30
0.0
 40
0
 41
0
  0
VERTEX
  8
0
 10
2.87483
 20
3.41607
 30
0.0
 40
0
 41
0
  0
VERTEX
  8
0
 10
2.86762
 20
3.39979
 30
0.0
 40
0
 41
0
  0
SEQEND
 8
0
  0
POLYLINE
  8
0
 62
     254
 66
     1
 10
0
 20
0
 30
0.0
 70
     1
 40
0
 41
0
  0
VERTEX
  8
0
 10
2.87483
 20
3.41607
 30
0.0
 40
0
 41
0
  0
VERTEX
  8
0
 10
3.37483
 20
3.16607
 30
0.0
 40
0
 41
0
  0
VERTEX
  8
0
 10
3.38026
 20
3.18463
 30
0.0
 40
0
 41
0
  0
VERTEX
  8
0
 10
2.88026
 20
3.43463
 30
0.0
 40
0
 41
0
  0
VERTEX
  8
0
 10
2.87483
 20
3.41607
 30
0.0
 40
0
 41
0
  0
SEQEND
 8
0
  0
POLYLINE
  8
0
 62
     254
 66
     1
 10
0
 20
0
 30
0.0
 70
     1
 40
0
 41
0
  0
VERTEX
  8
0
 10
2.88026
 20
3.43463
 30
0.0
 40
0
 41
0
  0
VERTEX
  8
0
 10
3.38026
 20
3.18463
 30
0.0
 40
0
 41
0
  0
VERTEX
  8
0
 10
3.38379
 20
3.20562
 30
0.0
 40
0
 41
0
  0
VERTEX
  8
0
 10
2.88379
 20
3.45562
 30
0.0
 40
0
 41
0
  0
VERTEX
  8
0
 10
2.88026
 20
3.43463
 30
0.0
 40
0
 41
0
  0
SEQEND
 8
0
  0
POLYLINE
  8
0
 62
     254
 66
     1
 10
0
 20
0
 30
0.0
 70
     1
 40
0
 41
0
  0
VERTEX
  8
0
 10
2.88379
 20
3.45562
 30
0.0
 40
0
 41
0
  0
VERTEX
  8
0
 10
3.38379
 20
3.20562
 30
0.0
 40
0
 41
0
  0
VERTEX
  8
0
 10
3.38525
 20
3.22922
 30
0.0
 40
0
 41
0
  0
VERTEX
  8
0
 10
2.88525
 20
3.47922
 30
0.0
 40
0
 41
0
  0
VERTEX
  8
0
 10
2.88379
 20
3.45562
 30
0.0
 40
0
 41
0
  0
SEQEND
 8
0
  0
POLYLINE
  8
0
 62
     0
 66
     1
 10
0
 20
0
 30
0.0
 70
     1
 40
1.008
 41
1.008
  0
VERTEX
  8
0
 10
2.39626
 20
3.0981
 30
0.0
 40
0.014
 41
0.014
  0
VERTEX
  8
0
 10
2.89626
 20
2.8481
 30
0.0
 40
0.014
 41
0.014
  0
VERTEX
  8
0
 10
2.9075
 20
2.8775
 30
0.0
 40
0.014
 41
0.014
  0
VERTEX
  8
0
 10
2.92019
 20
2.90386
 30
0.0
 40
0.014
 41
0.014
  0
VERTEX
  8
0
 10
2.93414
 20
2.9274
 30
0.0
 40
0.014
 41
0.014
  0
VERTEX
  8
0
 10
2.94928
 20
2.94835
 30
0.0
 40
0.014
 41
0.014
  0
VERTEX
  8
0
 10
2.9655
 20
2.96685
 30
0.0
 40
0.014
 41
0.014
  0
VERTEX
  8
0
 10
2.98269
 20
2.98307
 30
0.0
 40
0.014
 41
0.014
  0
VERTEX
  8
0
 10
3.00065
 20
2.99718
 30
0.0
 40
0.014
 41
0.014
  0
VERTEX
  8
0
 10
3.01938
 20
3.0095
 30
0.0
 40
0.014
 41
0.014
  0
VERTEX
  8
0
 10
3.03874
 20
3.02001
 30
0.0
 40
0.014
 41
0.014
  0
VERTEX
  8
0
 10
3.05854
 20
3.02908
 30
0.0
 40
0.014
 41
0.014
  0
VERTEX
  8
0
 10
3.07872
 20
3.03683
 30
0.0
 40
0.014
 41
0.014
  0
VERTEX
  8
0
 10
3.09918
 20
3.04346
 30
0.0
 40
0.014
 41
0.014
  0
VERTEX
  8
0
 10
3.11974
 20
3.04915
 30
0.0
 40
0.014
 41
0.014
  0
VERTEX
  8
0
 10
3.14035
 20
3.0541
 30
0.0
 40
0.014
 41
0.014
  0
VERTEX
  8
0
 10
3.16092
 20
3.05849
 30
0.0
 40
0.014
 41
0.014
  0
VERTEX
  8
0
 10
3.18121
 20
3.0625
 30
0.0
 40
0.014
 41
0.014
  0
VERTEX
  8
0
 10
3.20122
 20
3.06629
 30
0.0
 40
0.014
 41
0.014
  0
VERTEX
  8
0
 10
3.22081
 20
3.0701
 30
0.0
 40
0.014
 41
0.014
  0
VERTEX
  8
0
 10
3.23986
 20
3.07411
 30
0.0
 40
0.014
 41
0.014
  0
VERTEX
  8
0
 10
3.25825
 20
3.0785
 30
0.0
 40
0.014
 41
0.014
  0
VERTEX
  8
0
 10
3.27582
 20
3.08344
 30
0.0
 40
0.014
 41
0.014
  0
VERTEX
  8
0
 10
3.29254
 20
3.08914
 30
0.0
 40
0.014
 41
0.014
  0
VERTEX
  8
0
 10
3.30826
 20
3.09581
 30
0.0
 40
0.014
 41
0.014
  0
VERTEX
  8
0
 10
3.32281
 20
3.10357
 30
0.0
 40
0.014
 41
0.014
  0
VERTEX
  8
0
 10
3.33615
 20
3.11268
 30
0.0
 40
0.014
 41
0.014
  0
VERTEX
  8
0
 10
3.34814
 20
3.12332
 30
0.0
 40
0.014
 41
0.014
  0
VERTEX
  8
0
 10
3.35867
 20
3.13558
 30
0.0
 40
0.014
 41
0.014
  0
VERTEX
  8
0
 10
3.36762
 20
3.14979
 30
0.0
 40
0.014
 41
0.014
  0
VERTEX
  8
0
 10
3.37483
 20
3.16607
 30
0.0
 40
0.014
 41
0.014
  0
VERTEX
  8
0
 10
3.38026
 20
3.18463
 30
0.0
 40
0.014
 41
0.014
  0
VERTEX
  8
0
 10
3.38379
 20
3.20562
 30
0.0
 40
0.014
 41
0.014
  0
VERTEX
  8
0
 10
3.38525
 20
3.22922
 30
0.0
 40
0.014
 41
0.014
  0
VERTEX
  8
0
 10
2.88525
 20
3.47922
 30
0.0
 40
0.014
 41
0.014
  0
VERTEX
  8
0
 10
2.88379
 20
3.45562
 30
0.0
 40
0.014
 41
0.014
  0
VERTEX
  8
0
 10
2.88026
 20
3.43463
 30
0.0
 40
0.014
 41
0.014
  0
VERTEX
  8
0
 10
2.87483
 20
3.41607
 30
0.0
 40
0.014
 41
0.014
  0
VERTEX
  8
0
 10
2.86762
 20
3.39979
 30
0.0
 40
0.014
 41
0.014
  0
VERTEX
  8
0
 10
2.85867
 20
3.38558
 30
0.0
 40
0.014
 41
0.014
  0
VERTEX
  8
0
 10
2.84814
 20
3.37332
 30
0.0
 40
0.014
 41
0.014
  0
VERTEX
  8
0
 10
2.83615
 20
3.36268
 30
0.0
 40
0.014
 41
0.014
  0
VERTEX
  8
0
 10
2.82281
 20
3.35357
 30
0.0
 40
0.014
 41
0.014
  0
VERTEX
  8
0
 10
2.80826
 20
3.34581
 30
0.0
 40
0.014
 41
0.014
  0
VERTEX
  8
0
 10
2.79254
 20
3.33914
 30
0.0
 40
0.014
 41
0.014
  0
VERTEX
  8
0
 10
2.77582
 20
3.33344
 30
0.0
 40
0.014
 41
0.014
  0
VERTEX
  8
0
 10
2.75825
 20
3.3285
 30
0.0
 40
0.014
 41
0.014
  0
VERTEX
  8
0
 10
2.73986
 20
3.32411
 30
0.0
 40
0.014
 41
0.014
  0
VERTEX
  8
0
 10
2.72081
 20
3.3201
 30
0.0
 40
0.014
 41
0.014
  0
VERTEX
  8
0
 10
2.70122
 20
3.31629
 30
0.0
 40
0.014
 41
0.014
  0
VERTEX
  8
0
 10
2.68121
 20
3.3125
 30
0.0
 40
0.014
 41
0.014
  0
VERTEX
  8
0
 10
2.66092
 20
3.30849
 30
0.0
 40
0.014
 41
0.014
  0
VERTEX
  8
0
 10
2.64035
 20
3.3041
 30
0.0
 40
0.014
 41
0.014
  0
VERTEX
  8
0
 10
2.61974
 20
3.29915
 30
0.0
 40
0.014
 41
0.014
  0
VERTEX
  8
0
 10
2.59918
 20
3.29346
 30
0.0
 40
0.014
 41
0.014
  0
VERTEX
  8
0
 10
2.57872
 20
3.28683
 30
0.0
 40
0.014
 41
0.014
  0
VERTEX
  8
0
 10
2.55854
 20
3.27908
 30
0.0
 40
0.014
 41
0.014
  0
VERTEX
  8
0
 10
2.53874
 20
3.27001
 30
0.0
 40
0.014
 41
0.014
  0
VERTEX
  8
0
 10
2.51938
 20
3.2595
 30
0.0
 40
0.014
 41
0.014
  0
VERTEX
  8
0
 10
2.50071
 20
3.24718
 30
0.0
 40
0.014
 41
0.014
  0
VERTEX
  8
0
 10
2.48269
 20
3.23307
 30
0.0
 40
0.014
 41
0.014
  0
VERTEX
  8
0
 10
2.46556
 20
3.21685
 30
0.0
 40
0.014
 41
0.014
  0
VERTEX
  8
0
 10
2.44933
 20
3.19835
 30
0.0
 40
0.014
 41
0.014
  0
VERTEX
  8
0
 10
2.43414
 20
3.1774
 30
0.0
 40
0.014
 41
0.014
  0
VERTEX
  8
0
 10
2.42019
 20
3.15386
 30
0.0
 40
0.014
 41
0.014
  0
VERTEX
  8
0
 10
2.4075
 20
3.1275
 30
0.0
 40
0.014
 41
0.014
  0
VERTEX
  8
0
 10
2.39626
 20
3.0981
 30
0.0
 40
0.014
 41
0.014
  0
SEQEND
 8
0
  0
POLYLINE
  8
0
 62
     8
 66
     1
 10
0
 20
0
 30
0.0
 70
     1
 40
0
 41
0
  0
VERTEX
  8
0
 10
2.88525
 20
3.47922
 30
0.0
 40
0
 41
0
  0
VERTEX
  8
0
 10
3.38525
 20
3.22922
 30
0.0
 40
0
 41
0
  0
VERTEX
  8
0
 10
3.51417
 20
3.22922
 30
0.0
 40
0
 41
0
  0
VERTEX
  8
0
 10
3.01417
 20
3.47922
 30
0.0
 40
0
 41
0
  0
VERTEX
  8
0
 10
2.88525
 20
3.47922
 30
0.0
 40
0
 41
0
  0
SEQEND
 8
0
  0
POLYLINE
  8
0
 62
     0
 66
     1
 10
0
 20
0
 30
0.0
 70
     1
 40
1.008
 41
1.008
  0
VERTEX
  8
0
 10
2.88525
 20
3.47922
 30
0.0
 40
0.014
 41
0.014
  0
VERTEX
  8
0
 10
3.38525
 20
3.22922
 30
0.0
 40
0.014
 41
0.014
  0
VERTEX
  8
0
 10
3.51417
 20
3.22922
 30
0.0
 40
0.014
 41
0.014
  0
VERTEX
  8
0
 10
3.01417
 20
3.47922
 30
0.0
 40
0.014
 41
0.014
  0
VERTEX
  8
0
 10
2.88525
 20
3.47922
 30
0.0
 40
0.014
 41
0.014
  0
SEQEND
 8
0
  0
POLYLINE
  8
0
 62
     254
 66
     1
 10
0
 20
0
 30
0.0
 70
     1
 40
0
 41
0
  0
VERTEX
  8
0
 10
3.01417
 20
3.47922
 30
0.0
 40
0
 41
0
  0
VERTEX
  8
0
 10
3.51417
 20
3.22922
 30
0.0
 40
0
 41
0
  0
VERTEX
  8
0
 10
3.51417
 20
3.38178
 30
0.0
 40
0
 41
0
  0
VERTEX
  8
0
 10
3.01417
 20
3.63178
 30
0.0
 40
0
 41
0
  0
VERTEX
  8
0
 10
3.01417
 20
3.47922
 30
0.0
 40
0
 41
0
  0
SEQEND
 8
0
  0
POLYLINE
  8
0
 62
     0
 66
     1
 10
0
 20
0
 30
0.0
 70
     1
 40
1.008
 41
1.008
  0
VERTEX
  8
0
 10
3.01417
 20
3.47922
 30
0.0
 40
0.014
 41
0.014
  0
VERTEX
  8
0
 10
3.51417
 20
3.22922
 30
0.0
 40
0.014
 41
0.014
  0
VERTEX
  8
0
 10
3.51417
 20
3.38178
 30
0.0
 40
0.014
 41
0.014
  0
VERTEX
  8
0
 10
3.01417
 20
3.63178
 30
0.0
 40
0.014
 41
0.014
  0
VERTEX
  8
0
 10
3.01417
 20
3.47922
 30
0.0
 40
0.014
 41
0.014
  0
SEQEND
 8
0
  0
POLYLINE
  8
0
 62
     251
 66
     1
 10
0
 20
0
 30
0.0
 70
     1
 40
0
 41
0
  0
VERTEX
  8
0
 10
3.01417
 20
3.63178
 30
0.0
 40
0
 41
0
  0
VERTEX
  8
0
 10
3.51417
 20
3.38178
 30
0.0
 40
0
 41
0
  0
VERTEX
  8
0
 10
3.5785
 20
3.3909
 30
0.0
 40
0
 41
0
  0
VERTEX
  8
0
 10
3.0785
 20
3.6409
 30
0.0
 40
0
 41
0
  0
VERTEX
  8
0
 10
3.01417
 20
3.63178
 30
0.0
 40
0
 41
0
  0
SEQEND
 8
0
  0
POLYLINE
  8
0
 62
     252
 66
     1
 10
0
 20
0
 30
0.0
 70
     1
 40
0
 41
0
  0
VERTEX
  8
0
 10
3.0785
 20
3.6409
 30
0.0
 40
0
 41
0
  0
VERTEX
  8
0
 10
3.5785
 20
3.3909
 30
0.0
 40
0
 41
0
  0
VERTEX
  8
0
 10
3.63688
 20
3.40479
 30
0.0
 40
0
 41
0
  0
VERTEX
  8
0
 10
3.13687
 20
3.65479
 30
0.0
 40
0
 41
0
  0
VERTEX
  8
0
 10
3.0785
 20
3.6409
 30
0.0
 40
0
 41
0
  0
SEQEND
 8
0
  0
POLYLINE
  8
0
 62
     9
 66
     1
 10
0
 20
0
 30
0.0
 70
     1
 40
0
 41
0
  0
VERTEX
  8
0
 10
3.13687
 20
3.65479
 30
0.0
 40
0
 41
0
  0
VERTEX
  8
0
 10
3.63688
 20
3.40479
 30
0.0
 40
0
 41
0
  0
VERTEX
  8
0
 10
3.68983
 20
3.42312
 30
0.0
 40
0
 41
0
  0
VERTEX
  8
0
 10
3.18983
 20
3.67312
 30
0.0
 40
0
 41
0
  0
VERTEX
  8
0
 10
3.13687
 20
3.65479
 30
0.0
 40
0
 41
0
  0
SEQEND
 8
0
  0
POLYLINE
  8
0
 62
     253
 66
     1
 10
0
 20
0
 30
0.0
 70
     1
 40
0
 41
0
  0
VERTEX
  8
0
 10
3.18983
 20
3.67312
 30
0.0
 40
0
 41
0
  0
VERTEX
  8
0
 10
3.68983
 20
3.42312
 30
0.0
 40
0
 41
0
  0
VERTEX
  8
0
 10
3.73768
 20
3.44558
 30
0.0
 40
0
 41
0
  0
VERTEX
  8
0
 10
3.23774
 20
3.69558
 30
0.0
 40
0
 41
0
  0
VERTEX
  8
0
 10
3.18983
 20
3.67312
 30
0.0
 40
0
 41
0
  0
SEQEND
 8
0
  0
POLYLINE
  8
0
 62
     253
 66
     1
 10
0
 20
0
 30
0.0
 70
     1
 40
0
 41
0
  0
VERTEX
  8
0
 10
3.23774
 20
3.69558
 30
0.0
 40
0
 41
0
  0
VERTEX
  8
0
 10
3.73768
 20
3.44558
 30
0.0
 40
0
 41
0
  0
VERTEX
  8
0
 10
3.78103
 20
3.4719
 30
0.0
 40
0
 41
0
  0
VERTEX
  8
0
 10
3.28103
 20
3.7219
 30
0.0
 40
0
 41
0
  0
VERTEX
  8
0
 10
3.23774
 20
3.69558
 30
0.0
 40
0
 41
0
  0
SEQEND
 8
0
  0
POLYLINE
  8
0
 62
     254
 66
     1
 10
0
 20
0
 30
0.0
 70
     1
 40
0
 41
0
  0
VERTEX
  8
0
 10
3.28103
 20
3.7219
 30
0.0
 40
0
 41
0
  0
VERTEX
  8
0
 10
3.78103
 20
3.4719
 30
0.0
 40
0
 41
0
  0
VERTEX
  8
0
 10
3.82026
 20
3.50168
 30
0.0
 40
0
 41
0
  0
VERTEX
  8
0
 10
3.32026
 20
3.75168
 30
0.0
 40
0
 41
0
  0
VERTEX
  8
0
 10
3.28103
 20
3.7219
 30
0.0
 40
0
 41
0
  0
SEQEND
 8
0
  0
POLYLINE
  8
0
 62
     254
 66
     1
 10
0
 20
0
 30
0.0
 70
     1
 40
0
 41
0
  0
VERTEX
  8
0
 10
3.32026
 20
3.75168
 30
0.0
 40
0
 41
0
  0
VERTEX
  8
0
 10
3.82026
 20
3.50168
 30
0.0
 40
0
 41
0
  0
VERTEX
  8
0
 10
3.85585
 20
3.53461
 30
0.0
 40
0
 41
0
  0
VERTEX
  8
0
 10
3.35585
 20
3.78461
 30
0.0
 40
0
 41
0
  0
VERTEX
  8
0
 10
3.32026
 20
3.75168
 30
0.0
 40
0
 41
0
  0
SEQEND
 8
0
  0
POLYLINE
  8
0
 62
     254
 66
     1
 10
0
 20
0
 30
0.0
 70
     1
 40
0
 41
0
  0
VERTEX
  8
0
 10
3.35585
 20
3.78461
 30
0.0
 40
0
 41
0
  0
VERTEX
  8
0
 10
3.85585
 20
3.53461
 30
0.0
 40
0
 41
0
  0
VERTEX
  8
0
 10
3.88824
 20
3.57042
 30
0.0
 40
0
 41
0
  0
VERTEX
  8
0
 10
3.38824
 20
3.82042
 30
0.0
 40
0
 41
0
  0
VERTEX
  8
0
 10
3.35585
 20
3.78461
 30
0.0
 40
0
 41
0
  0
SEQEND
 8
0
  0
POLYLINE
  8
0
 62
     254
 66
     1
 10
0
 20
0
 30
0.0
 70
     1
 40
0
 41
0
  0
VERTEX
  8
0
 10
3.38824
 20
3.82042
 30
0.0
 40
0
 41
0
  0
VERTEX
  8
0
 10
3.88824
 20
3.57042
 30
0.0
 40
0
 41
0
  0
VERTEX
  8
0
 10
3.91792
 20
3.60878
 30
0.0
 40
0
 41
0
  0
VERTEX
  8
0
 10
3.41792
 20
3.85878
 30
0.0
 40
0
 41
0
  0
VERTEX
  8
0
 10
3.38824
 20
3.82042
 30
0.0
 40
0
 41
0
  0
SEQEND
 8
0
  0
POLYLINE
  8
0
 62
     254
 66
     1
 10
0
 20
0
 30
0.0
 70
     1
 40
0
 41
0
  0
VERTEX
  8
0
 10
3.41792
 20
3.85878
 30
0.0
 40
0
 41
0
  0
VERTEX
  8
0
 10
3.91792
 20
3.60878
 30
0.0
 40
0
 41
0
  0
VERTEX
  8
0
 10
3.94532
 20
3.64931
 30
0.0
 40
0
 41
0
  0
VERTEX
  8
0
 10
3.44532
 20
3.89931
 30
0.0
 40
0
 41
0
  0
VERTEX
  8
0
 10
3.41792
 20
3.85878
 30
0.0
 40
0
 41
0
  0
SEQEND
 8
0
  0
POLYLINE
  8
0
 62
     254
 66
     1
 10
0
 20
0
 30
0.0
 70
     1
 40
0
 41
0
  0
VERTEX
  8
0
 10
3.44532
 20
3.89931
 30
0.0
 40
0
 41
0
  0
VERTEX
  8
0
 10
3.94532
 20
3.64931
 30
0.0
 40
0
 41
0
  0
VERTEX
  8
0
 10
3.97086
 20
3.69174
 30
0.0
 40
0
 41
0
  0
VERTEX
  8
0
 10
3.47092
 20
3.94174
 30
0.0
 40
0
 41
0
  0
VERTEX
  8
0
 10
3.44532
 20
3.89931
 30
0.0
 40
0
 41
0
  0
SEQEND
 8
0
  0
POLYLINE
  8
0
 62
     254
 66
     1
 10
0
 20
0
 30
0.0
 70
     1
 40
0
 41
0
  0
VERTEX
  8
0
 10
3.47092
 20
3.94174
 30
0.0
 40
0
 41
0
  0
VERTEX
  8
0
 10
3.97086
 20
3.69174
 30
0.0
 40
0
 41
0
  0
VERTEX
  8
0
 10
3.99511
 20
3.73579
 30
0.0
 40
0
 41
0
  0
VERTEX
  8
0
 10
3.49511
 20
3.98579
 30
0.0
 40
0
 41
0
  0
VERTEX
  8
0
 10
3.47092
 20
3.94174
 30
0.0
 40
0
 41
0
  0
SEQEND
 8
0
  0
POLYLINE
  8
0
 62
     254
 66
     1
 10
0
 20
0
 30
0.0
 70
     1
 40
0
 41
0
  0
VERTEX
  8
0
 10
3.49511
 20
3.98579
 30
0.0
 40
0
 41
0
  0
VERTEX
  8
0
 10
3.99511
 20
3.73579
 30
0.0
 40
0
 41
0
  0
VERTEX
  8
0
 10
4.01844
 20
3.78103
 30
0.0
 40
0
 41
0
  0
VERTEX
  8
0
 10
3.51844
 20
4.03103
 30
0.0
 40
0
 41
0
  0
VERTEX
  8
0
 10
3.49511
 20
3.98579
 30
0.0
 40
0
 41
0
  0
SEQEND
 8
0
  0
POLYLINE
  8
0
 62
     254
 66
     1
 10
0
 20
0
 30
0.0
 70
     1
 40
0
 41
0
  0
VERTEX
  8
0
 10
3.51844
 20
4.03103
 30
0.0
 40
0
 41
0
  0
VERTEX
  8
0
 10
4.01844
 20
3.78103
 30
0.0
 40
0
 41
0
  0
VERTEX
  8
0
 10
4.04135
 20
3.82726
 30
0.0
 40
0
 41
0
  0
VERTEX
  8
0
 10
3.54135
 20
4.07726
 30
0.0
 40
0
 41
0
  0
VERTEX
  8
0
 10
3.51844
 20
4.03103
 30
0.0
 40
0
 41
0
  0
SEQEND
 8
0
  0
POLYLINE
  8
0
 62
     254
 66
     1
 10
0
 20
0
 30
0.0
 70
     1
 40
0
 41
0
  0
VERTEX
  8
0
 10
3.54135
 20
4.07726
 30
0.0
 40
0
 41
0
  0
VERTEX
  8
0
 10
4.04135
 20
3.82726
 30
0.0
 40
0
 41
0
  0
VERTEX
  8
0
 10
4.06429
 20
3.87408
 30
0.0
 40
0
 41
0
  0
VERTEX
  8
0
 10
3.56429
 20
4.12408
 30
0.0
 40
0
 41
0
  0
VERTEX
  8
0
 10
3.54135
 20
4.07726
 30
0.0
 40
0
 41
0
  0
SEQEND
 8
0
  0
POLYLINE
  8
0
 62
     254
 66
     1
 10
0
 20
0
 30
0.0
 70
     1
 40
0
 41
0
  0
VERTEX
  8
0
 10
3.56429
 20
4.12408
 30
0.0
 40
0
 41
0
  0
VERTEX
  8
0
 10
4.06429
 20
3.87408
 30
0.0
 40
0
 41
0
  0
VERTEX
  8
0
 10
4.08768
 20
3.92122
 30
0.0
 40
0
 41
0
  0
VERTEX
  8
0
 10
3.58768
 20
4.17122
 30
0.0
 40
0
 41
0
  0
VERTEX
  8
0
 10
3.56429
 20
4.12408
 30
0.0
 40
0
 41
0
  0
SEQEND
 8
0
  0
POLYLINE
  8
0
 62
     254
 66
     1
 10
0
 20
0
 30
0.0
 70
     1
 40
0
 41
0
  0
VERTEX
  8
0
 10
3.58768
 20
4.17122
 30
0.0
 40
0
 41
0
  0
VERTEX
  8
0
 10
4.08768
 20
3.92122
 30
0.0
 40
0
 41
0
  0
VERTEX
  8
0
 10
4.11203
 20
3.96832
 30
0.0
 40
0
 41
0
  0
VERTEX
  8
0
 10
3.61203
 20
4.21832
 30
0.0
 40
0
 41
0
  0
VERTEX
  8
0
 10
3.58768
 20
4.17122
 30
0.0
 40
0
 41
0
  0
SEQEND
 8
0
  0
POLYLINE
  8
0
 62
     254
 66
     1
 10
0
 20
0
 30
0.0
 70
     1
 40
0
 41
0
  0
VERTEX
  8
0
 10
3.61203
 20
4.21832
 30
0.0
 40
0
 41
0
  0
VERTEX
  8
0
 10
4.11203
 20
3.96832
 30
0.0
 40
0
 41
0
  0
VERTEX
  8
0
 10
4.13775
 20
4.01508
 30
0.0
 40
0
 41
0
  0
VERTEX
  8
0
 10
3.63775
 20
4.26508
 30
0.0
 40
0
 41
0
  0
VERTEX
  8
0
 10
3.61203
 20
4.21832
 30
0.0
 40
0
 41
0
  0
SEQEND
 8
0
  0
POLYLINE
  8
0
 62
     254
 66
     1
 10
0
 20
0
 30
0.0
 70
     1
 40
0
 41
0
  0
VERTEX
  8
0
 10
3.63775
 20
4.26508
 30
0.0
 40
0
 41
0
  0
VERTEX
  8
0
 10
4.13775
 20
4.01508
 30
0.0
 40
0
 41
0
  0
VERTEX
  8
0
 10
4.16536
 20
4.06119
 30
0.0
 40
0
 41
0
  0
VERTEX
  8
0
 10
3.66536
 20
4.31119
 30
0.0
 40
0
 41
0
  0
VERTEX
  8
0
 10
3.63775
 20
4.26508
 30
0.0
 40
0
 41
0
  0
SEQEND
 8
0
  0
POLYLINE
  8
0
 62
     254
 66
     1
 10
0
 20
0
 30
0.0
 70
     1
 40
0
 41
0
  0
VERTEX
  8
0
 10
3.66536
 20
4.31119
 30
0.0
 40
0
 41
0
  0
VERTEX
  8
0
 10
4.16536
 20
4.06119
 30
0.0
 40
0
 41
0
  0
VERTEX
  8
0
 10
4.19526
 20
4.10633
 30
0.0
 40
0
 41
0
  0
VERTEX
  8
0
 10
3.69526
 20
4.35633
 30
0.0
 40
0
 41
0
  0
VERTEX
  8
0
 10
3.66536
 20
4.31119
 30
0.0
 40
0
 41
0
  0
SEQEND
 8
0
  0
POLYLINE
  8
0
 62
     254
 66
     1
 10
0
 20
0
 30
0.0
 70
     1
 40
0
 41
0
  0
VERTEX
  8
0
 10
3.69526
 20
4.35633
 30
0.0
 40
0
 41
0
  0
VERTEX
  8
0
 10
4.19526
 20
4.10633
 30
0.0
 40
0
 41
0
  0
VERTEX
  8
0
 10
4.22797
 20
4.15012
 30
0.0
 40
0
 41
0
  0
VERTEX
  8
0
 10
3.72797
 20
4.40012
 30
0.0
 40
0
 41
0
  0
VERTEX
  8
0
 10
3.69526
 20
4.35633
 30
0.0
 40
0
 41
0
  0
SEQEND
 8
0
  0
POLYLINE
  8
0
 62
     254
 66
     1
 10
0
 20
0
 30
0.0
 70
     1
 40
0
 41
0
  0
VERTEX
  8
0
 10
3.72797
 20
4.40012
 30
0.0
 40
0
 41
0
  0
VERTEX
  8
0
 10
4.22797
 20
4.15012
 30
0.0
 40
0
 41
0
  0
VERTEX
  8
0
 10
4.26389
 20
4.19233
 30
0.0
 40
0
 41
0
  0
VERTEX
  8
0
 10
3.76389
 20
4.44233
 30
0.0
 40
0
 41
0
  0
VERTEX
  8
0
 10
3.72797
 20
4.40012
 30
0.0
 40
0
 41
0
  0
SEQEND
 8
0
  0
POLYLINE
  8
0
 62
     254
 66
     1
 10
0
 20
0
 30
0.0
 70
     1
 40
0
 41
0
  0
VERTEX
  8
0
 10
3.76389
 20
4.44233
 30
0.0
 40
0
 41
0
  0
VERTEX
  8
0
 10
4.26389
 20
4.19233
 30
0.0
 40
0
 41
0
  0
VERTEX
  8
0
 10
4.3035
 20
4.23258
 30
0.0
 40
0
 41
0
  0
VERTEX
  8
0
 10
3.80354
 20
4.48258
 30
0.0
 40
0
 41
0
  0
VERTEX
  8
0
 10
3.76389
 20
4.44233
 30
0.0
 40
0
 41
0
  0
SEQEND
 8
0
  0
POLYLINE
  8
0
 62
     254
 66
     1
 10
0
 20
0
 30
0.0
 70
     1
 40
0
 41
0
  0
VERTEX
  8
0
 10
3.80354
 20
4.48258
 30
0.0
 40
0
 41
0
  0
VERTEX
  8
0
 10
4.3035
 20
4.23258
 30
0.0
 40
0
 41
0
  0
VERTEX
  8
0
 10
4.34728
 20
4.27056
 30
0.0
 40
0
 41
0
  0
VERTEX
  8
0
 10
3.84728
 20
4.52056
 30
0.0
 40
0
 41
0
  0
VERTEX
  8
0
 10
3.80354
 20
4.48258
 30
0.0
 40
0
 41
0
  0
SEQEND
 8
0
  0
POLYLINE
  8
0
 62
     254
 66
     1
 10
0
 20
0
 30
0.0
 70
     1
 40
0
 41
0
  0
VERTEX
  8
0
 10
3.84728
 20
4.52056
 30
0.0
 40
0
 41
0
  0
VERTEX
  8
0
 10
4.34728
 20
4.27056
 30
0.0
 40
0
 41
0
  0
VERTEX
  8
0
 10
4.39567
 20
4.30599
 30
0.0
 40
0
 41
0
  0
VERTEX
  8
0
 10
3.89567
 20
4.55599
 30
0.0
 40
0
 41
0
  0
VERTEX
  8
0
 10
3.84728
 20
4.52056
 30
0.0
 40
0
 41
0
  0
SEQEND
 8
0
  0
POLYLINE
  8
0
 62
     253
 66
     1
 10
0
 20
0
 30
0.0
 70
     1
 40
0
 41
0
  0
VERTEX
  8
0
 10
3.89567
 20
4.55599
 30
0.0
 40
0
 41
0
  0
VERTEX
  8
0
 10
4.39567
 20
4.30599
 30
0.0
 40
0
 41
0
  0
VERTEX
  8
0
 10
4.44917
 20
4.33854
 30
0.0
 40
0
 41
0
  0
VERTEX
  8
0
 10
3.94917
 20
4.58854
 30
0.0
 40
0
 41
0
  0
VERTEX
  8
0
 10
3.89567
 20
4.55599
 30
0.0
 40
0
 41
0
  0
SEQEND
 8
0
  0
POLYLINE
  8
0
 62
     253
 66
     1
 10
0
 20
0
 30
0.0
 70
     1
 40
0
 41
0
  0
VERTEX
  8
0
 10
3.94917
 20
4.58854
 30
0.0
 40
0
 41
0
  0
VERTEX
  8
0
 10
4.44917
 20
4.33854
 30
0.0
 40
0
 41
0
  0
VERTEX
  8
0
 10
4.50814
 20
4.36778
 30
0.0
 40
0
 41
0
  0
VERTEX
  8
0
 10
4.00814
 20
4.61778
 30
0.0
 40
0
 41
0
  0
VERTEX
  8
0
 10
3.94917
 20
4.58854
 30
0.0
 40
0
 41
0
  0
SEQEND
 8
0
  0
POLYLINE
  8
0
 62
     253
 66
     1
 10
0
 20
0
 30
0.0
 70
     1
 40
0
 41
0
  0
VERTEX
  8
0
 10
4.00814
 20
4.61778
 30
0.0
 40
0
 41
0
  0
VERTEX
  8
0
 10
4.50814
 20
4.36778
 30
0.0
 40
0
 41
0
  0
VERTEX
  8
0
 10
4.57308
 20
4.39356
 30
0.0
 40
0
 41
0
  0
VERTEX
  8
0
 10
4.07308
 20
4.64356
 30
0.0
 40
0
 41
0
  0
VERTEX
  8
0
 10
4.00814
 20
4.61778
 30
0.0
 40
0
 41
0
  0
SEQEND
 8
0
  0
POLYLINE
  8
0
 62
     9
 66
     1
 10
0
 20
0
 30
0.0
 70
     1
 40
0
 41
0
  0
VERTEX
  8
0
 10
4.07308
 20
4.64356
 30
0.0
 40
0
 41
0
  0
VERTEX
  8
0
 10
4.57308
 20
4.39356
 30
0.0
 40
0
 41
0
  0
VERTEX
  8
0
 10
4.64453
 20
4.41547
 30
0.0
 40
0
 41
0
  0
VERTEX
  8
0
 10
4.14453
 20
4.66547
 30
0.0
 40
0
 41
0
  0
VERTEX
  8
0
 10
4.07308
 20
4.64356
 30
0.0
 40
0
 41
0
  0
SEQEND
 8
0
  0
POLYLINE
  8
0
 62
     252
 66
     1
 10
0
 20
0
 30
0.0
 70
     1
 40
0
 41
0
  0
VERTEX
  8
0
 10
4.14453
 20
4.66547
 30
0.0
 40
0
 41
0
  0
VERTEX
  8
0
 10
4.64453
 20
4.41547
 30
0.0
 40
0
 41
0
  0
VERTEX
  8
0
 10
4.72282
 20
4.43321
 30
0.0
 40
0
 41
0
  0
VERTEX
  8
0
 10
4.22282
 20
4.68321
 30
0.0
 40
0
 41
0
  0
VERTEX
  8
0
 10
4.14453
 20
4.66547
 30
0.0
 40
0
 41
0
  0
SEQEND
 8
0
  0
POLYLINE
  8
0
 62
     252
 66
     1
 10
0
 20
0
 30
0.0
 70
     1
 40
0
 41
0
  0
VERTEX
  8
0
 10
4.22282
 20
4.68321
 30
0.0
 40
0
 41
0
  0
VERTEX
  8
0
 10
4.72282
 20
4.43321
 30
0.0
 40
0
 41
0
  0
VERTEX
  8
0
 10
4.80854
 20
4.44646
 30
0.0
 40
0
 41
0
  0
VERTEX
  8
0
 10
4.30854
 20
4.69646
 30
0.0
 40
0
 41
0
  0
VERTEX
  8
0
 10
4.22282
 20
4.68321
 30
0.0
 40
0
 41
0
  0
SEQEND
 8
0
  0
POLYLINE
  8
0
 62
     251
 66
     1
 10
0
 20
0
 30
0.0
 70
     1
 40
0
 41
0
  0
VERTEX
  8
0
 10
4.30854
 20
4.69646
 30
0.0
 40
0
 41
0
  0
VERTEX
  8
0
 10
4.80854
 20
4.44646
 30
0.0
 40
0
 41
0
  0
VERTEX
  8
0
 10
4.90201
 20
4.45486
 30
0.0
 40
0
 41
0
  0
VERTEX
  8
0
 10
4.40201
 20
4.70486
 30
0.0
 40
0
 41
0
  0
VERTEX
  8
0
 10
4.30854
 20
4.69646
 30
0.0
 40
0
 41
0
  0
SEQEND
 8
0
  0
POLYLINE
  8
0
 62
     0
 66
     1
 10
0
 20
0
 30
0.0
 70
     1
 40
1.008
 41
1.008
  0
VERTEX
  8
0
 10
3.01417
 20
3.63178
 30
0.0
 40
0.014
 41
0.014
  0
VERTEX
  8
0
 10
3.51417
 20
3.38178
 30
0.0
 40
0.014
 41
0.014
  0
VERTEX
  8
0
 10
3.5785
 20
3.3909
 30
0.0
 40
0.014
 41
0.014
  0
VERTEX
  8
0
 10
3.63688
 20
3.40479
 30
0.0
 40
0.014
 41
0.014
  0
VERTEX
  8
0
 10
3.68983
 20
3.42312
 30
0.0
 40
0.014
 41
0.014
  0
VERTEX
  8
0
 10
3.73768
 20
3.44558
 30
0.0
 40
0.014
 41
0.014
  0
VERTEX
  8
0
 10
3.78103
 20
3.4719
 30
0.0
 40
0.014
 41
0.014
  0
VERTEX
  8
0
 10
3.82026
 20
3.50168
 30
0.0
 40
0.014
 41
0.014
  0
VERTEX
  8
0
 10
3.85585
 20
3.53461
 30
0.0
 40
0.014
 41
0.014
  0
VERTEX
  8
0
 10
3.88824
 20
3.57042
 30
0.0
 40
0.014
 41
0.014
  0
VERTEX
  8
0
 10
3.91792
 20
3.60878
 30
0.0
 40
0.014
 41
0.014
  0
VERTEX
  8
0
 10
3.94532
 20
3.64931
 30
0.0
 40
0.014
 41
0.014
  0
VERTEX
  8
0
 10
3.97086
 20
3.69174
 30
0.0
 40
0.014
 41
0.014
  0
VERTEX
  8
0
 10
3.99511
 20
3.73579
 30
0.0
 40
0.014
 41
0.014
  0
VERTEX
  8
0
 10
4.01844
 20
3.78103
 30
0.0
 40
0.014
 41
0.014
  0
VERTEX
  8
0
 10
4.04135
 20
3.82726
 30
0.0
 40
0.014
 41
0.014
  0
VERTEX
  8
0
 10
4.06429
 20
3.87408
 30
0.0
 40
0.014
 41
0.014
  0
VERTEX
  8
0
 10
4.08768
 20
3.92122
 30
0.0
 40
0.014
 41
0.014
  0
VERTEX
  8
0
 10
4.11203
 20
3.96832
 30
0.0
 40
0.014
 41
0.014
  0
VERTEX
  8
0
 10
4.13775
 20
4.01508
 30
0.0
 40
0.014
 41
0.014
  0
VERTEX
  8
0
 10
4.16536
 20
4.06119
 30
0.0
 40
0.014
 41
0.014
  0
VERTEX
  8
0
 10
4.19526
 20
4.10633
 30
0.0
 40
0.014
 41
0.014
  0
VERTEX
  8
0
 10
4.22797
 20
4.15012
 30
0.0
 40
0.014
 41
0.014
  0
VERTEX
  8
0
 10
4.26389
 20
4.19233
 30
0.0
 40
0.014
 41
0.014
  0
VERTEX
  8
0
 10
4.3035
 20
4.23258
 30
0.0
 40
0.014
 41
0.014
  0
VERTEX
  8
0
 10
4.34728
 20
4.27056
 30
0.0
 40
0.014
 41
0.014
  0
VERTEX
  8
0
 10
4.39567
 20
4.30599
 30
0.0
 40
0.014
 41
0.014
  0
VERTEX
  8
0
 10
4.44917
 20
4.33854
 30
0.0
 40
0.014
 41
0.014
  0
VERTEX
  8
0
 10
4.50814
 20
4.36778
 30
0.0
 40
0.014
 41
0.014
  0
VERTEX
  8
0
 10
4.57308
 20
4.39356
 30
0.0
 40
0.014
 41
0.014
  0
VERTEX
  8
0
 10
4.64453
 20
4.41547
 30
0.0
 40
0.014
 41
0.014
  0
VERTEX
  8
0
 10
4.72282
 20
4.43321
 30
0.0
 40
0.014
 41
0.014
  0
VERTEX
  8
0
 10
4.80854
 20
4.44646
 30
0.0
 40
0.014
 41
0.014
  0
VERTEX
  8
0
 10
4.90201
 20
4.45486
 30
0.0
 40
0.014
 41
0.014
  0
VERTEX
  8
0
 10
4.40201
 20
4.70486
 30
0.0
 40
0.014
 41
0.014
  0
VERTEX
  8
0
 10
4.30854
 20
4.69646
 30
0.0
 40
0.014
 41
0.014
  0
VERTEX
  8
0
 10
4.22282
 20
4.68321
 30
0.0
 40
0.014
 41
0.014
  0
VERTEX
  8
0
 10
4.14453
 20
4.66547
 30
0.0
 40
0.014
 41
0.014
  0
VERTEX
  8
0
 10
4.07308
 20
4.64356
 30
0.0
 40
0.014
 41
0.014
  0
VERTEX
  8
0
 10
4.00814
 20
4.61778
 30
0.0
 40
0.014
 41
0.014
  0
VERTEX
  8
0
 10
3.94917
 20
4.58854
 30
0.0
 40
0.014
 41
0.014
  0
VERTEX
  8
0
 10
3.89567
 20
4.55599
 30
0.0
 40
0.014
 41
0.014
  0
VERTEX
  8
0
 10
3.84728
 20
4.52056
 30
0.0
 40
0.014
 41
0.014
  0
VERTEX
  8
0
 10
3.80354
 20
4.48258
 30
0.0
 40
0.014
 41
0.014
  0
VERTEX
  8
0
 10
3.76389
 20
4.44233
 30
0.0
 40
0.014
 41
0.014
  0
VERTEX
  8
0
 10
3.72797
 20
4.40012
 30
0.0
 40
0.014
 41
0.014
  0
VERTEX
  8
0
 10
3.69526
 20
4.35633
 30
0.0
 40
0.014
 41
0.014
  0
VERTEX
  8
0
 10
3.66536
 20
4.31119
 30
0.0
 40
0.014
 41
0.014
  0
VERTEX
  8
0
 10
3.63775
 20
4.26508
 30
0.0
 40
0.014
 41
0.014
  0
VERTEX
  8
0
 10
3.61203
 20
4.21832
 30
0.0
 40
0.014
 41
0.014
  0
VERTEX
  8
0
 10
3.58768
 20
4.17122
 30
0.0
 40
0.014
 41
0.014
  0
VERTEX
  8
0
 10
3.56429
 20
4.12408
 30
0.0
 40
0.014
 41
0.014
  0
VERTEX
  8
0
 10
3.54135
 20
4.07726
 30
0.0
 40
0.014
 41
0.014
  0
VERTEX
  8
0
 10
3.51844
 20
4.03103
 30
0.0
 40
0.014
 41
0.014
  0
VERTEX
  8
0
 10
3.49511
 20
3.98579
 30
0.0
 40
0.014
 41
0.014
  0
VERTEX
  8
0
 10
3.47092
 20
3.94174
 30
0.0
 40
0.014
 41
0.014
  0
VERTEX
  8
0
 10
3.44532
 20
3.89931
 30
0.0
 40
0.014
 41
0.014
  0
VERTEX
  8
0
 10
3.41792
 20
3.85878
 30
0.0
 40
0.014
 41
0.014
  0
VERTEX
  8
0
 10
3.38824
 20
3.82042
 30
0.0
 40
0.014
 41
0.014
  0
VERTEX
  8
0
 10
3.35585
 20
3.78461
 30
0.0
 40
0.014
 41
0.014
  0
VERTEX
  8
0
 10
3.32026
 20
3.75168
 30
0.0
 40
0.014
 41
0.014
  0
VERTEX
  8
0
 10
3.28103
 20
3.7219
 30
0.0
 40
0.014
 41
0.014
  0
VERTEX
  8
0
 10
3.23774
 20
3.69558
 30
0.0
 40
0.014
 41
0.014
  0
VERTEX
  8
0
 10
3.18983
 20
3.67312
 30
0.0
 40
0.014
 41
0.014
  0
VERTEX
  8
0
 10
3.13687
 20
3.65479
 30
0.0
 40
0.014
 41
0.014
  0
VERTEX
  8
0
 10
3.0785
 20
3.6409
 30
0.0
 40
0.014
 41
0.014
  0
VERTEX
  8
0
 10
3.01417
 20
3.63178
 30
0.0
 40
0.014
 41
0.014
  0
SEQEND
 8
0
  0
POLYLINE
  8
0
 62
     254
 66
     1
 10
0
 20
0
 30
0.0
 70
     1
 40
0
 41
0
  0
VERTEX
  8
0
 10
4.40201
 20
4.70486
 30
0.0
 40
0
 41
0
  0
VERTEX
  8
0
 10
4.90201
 20
4.45486
 30
0.0
 40
0
 41
0
  0
VERTEX
  8
0
 10
4.90201
 20
4.75336
 30
0.0
 40
0
 41
0
  0
VERTEX
  8
0
 10
4.40201
 20
5.00336
 30
0.0
 40
0
 41
0
  0
VERTEX
  8
0
 10
4.40201
 20
4.70486
 30
0.0
 40
0
 41
0
  0
SEQEND
 8
0
  0
POLYLINE
  8
0
 62
     0
 66
     1
 10
0
 20
0
 30
0.0
 70
     1
 40
1.008
 41
1.008
  0
VERTEX
  8
0
 10
4.40201
 20
4.70486
 30
0.0
 40
0.014
 41
0.014
  0
VERTEX
  8
0
 10
4.90201
 20
4.45486
 30
0.0
 40
0.014
 41
0.014
  0
VERTEX
  8
0
 10
4.90201
 20
4.75336
 30
0.0
 40
0.014
 41
0.014
  0
VERTEX
  8
0
 10
4.40201
 20
5.00336
 30
0.0
 40
0.014
 41
0.014
  0
VERTEX
  8
0
 10
4.40201
 20
4.70486
 30
0.0
 40
0.014
 41
0.014
  0
SEQEND
 8
0
  0
POLYLINE
  8
0
 62
     253
 66
     1
 10
0
 20
0
 30
0.0
 70
     1
 40
0
 41
0
  0
VERTEX
  8
0
 10
2.26926
 20
3.47276
 30
0.0
 40
0
 41
0
  0
VERTEX
  8
0
 10
2.26926
 20
3.0981
 30
0.0
 40
0
 41
0
  0
VERTEX
  8
0
 10
2.39626
 20
3.0981
 30
0.0
 40
0
 41
0
  0
VERTEX
  8
0
 10
2.40528
 20
3.12463
 30
0.0
 40
0
 41
0
  0
VERTEX
  8
0
 10
2.44928
 20
3.1984
 30
0.0
 40
0
 41
0
  0
VERTEX
  8
0
 10
2.51938
 20
3.2595
 30
0.0
 40
0
 41
0
  0
VERTEX
  8
0
 10
2.59912
 20
3.29351
 30
0.0
 40
0
 41
0
  0
VERTEX
  8
0
 10
2.68121
 20
3.3125
 30
0.0
 40
0
 41
0
  0
VERTEX
  8
0
 10
2.75825
 20
3.3285
 30
0.0
 40
0
 41
0
  0
VERTEX
  8
0
 10
2.82281
 20
3.35363
 30
0.0
 40
0
 41
0
  0
VERTEX
  8
0
 10
2.86762
 20
3.39985
 30
0.0
 40
0
 41
0
  0
VERTEX
  8
0
 10
2.88493
 20
3.45936
 30
0.0
 40
0
 41
0
  0
VERTEX
  8
0
 10
2.88525
 20
3.47922
 30
0.0
 40
0
 41
0
  0
VERTEX
  8
0
 10
3.01417
 20
3.47922
 30
0.0
 40
0
 41
0
  0
VERTEX
  8
0
 10
3.01417
 20
3.63178
 30
0.0
 40
0
 41
0
  0
VERTEX
  8
0
 10
3.04508
 20
3.63482
 30
0.0
 40
0
 41
0
  0
VERTEX
  8
0
 10
3.13687
 20
3.65483
 30
0.0
 40
0
 41
0
  0
VERTEX
  8
0
 10
3.23768
 20
3.69564
 30
0.0
 40
0
 41
0
  0
VERTEX
  8
0
 10
3.32026
 20
3.75168
 30
0.0
 40
0
 41
0
  0
VERTEX
  8
0
 10
3.38824
 20
3.82047
 30
0.0
 40
0
 41
0
  0
VERTEX
  8
0
 10
3.44532
 20
3.89936
 30
0.0
 40
0
 41
0
  0
VERTEX
  8
0
 10
3.49511
 20
3.98579
 30
0.0
 40
0
 41
0
  0
VERTEX
  8
0
 10
3.54135
 20
4.07731
 30
0.0
 40
0
 41
0
  0
VERTEX
  8
0
 10
3.58768
 20
4.17128
 30
0.0
 40
0
 41
0
  0
VERTEX
  8
0
 10
3.63775
 20
4.26514
 30
0.0
 40
0
 41
0
  0
VERTEX
  8
0
 10
3.69526
 20
4.35633
 30
0.0
 40
0
 41
0
  0
VERTEX
  8
0
 10
3.76389
 20
4.44239
 30
0.0
 40
0
 41
0
  0
VERTEX
  8
0
 10
3.84728
 20
4.52061
 30
0.0
 40
0
 41
0
  0
VERTEX
  8
0
 10
3.94911
 20
4.58854
 30
0.0
 40
0
 41
0
  0
VERTEX
  8
0
 10
4.07308
 20
4.64361
 30
0.0
 40
0
 41
0
  0
VERTEX
  8
0
 10
4.22282
 20
4.68326
 30
0.0
 40
0
 41
0
  0
VERTEX
  8
0
 10
4.35704
 20
4.70215
 30
0.0
 40
0
 41
0
  0
VERTEX
  8
0
 10
4.40201
 20
4.70486
 30
0.0
 40
0
 41
0
  0
VERTEX
  8
0
 10
4.40201
 20
5.00336
 30
0.0
 40
0
 41
0
  0
VERTEX
  8
0
 10
3.94906
 20
4.97478
 30
0.0
 40
0
 41
0
  0
VERTEX
  8
0
 10
2.26926
 20
3.47276
 30
0.0
 40
0
 41
0
  0
SEQEND
 8
0
  0
POLYLINE
  8
0
 62
     0
 66
     1
 10
0
 20
0
 30
0.0
 70
     1
 40
1.008
 41
1.008
  0
VERTEX
  8
0
 10
2.26926
 20
3.47276
 30
0.0
 40
0.014
 41
0.014
  0
VERTEX
  8
0
 10
2.26926
 20
3.0981
 30
0.0
 40
0.014
 41
0.014
  0
VERTEX
  8
0
 10
2.39626
 20
3.0981
 30
0.0
 40
0.014
 41
0.014
  0
VERTEX
  8
0
 10
2.40528
 20
3.12463
 30
0.0
 40
0.014
 41
0.014
  0
VERTEX
  8
0
 10
2.44928
 20
3.1984
 30
0.0
 40
0.014
 41
0.014
  0
VERTEX
  8
0
 10
2.51938
 20
3.2595
 30
0.0
 40
0.014
 41
0.014
  0
VERTEX
  8
0
 10
2.59912
 20
3.29351
 30
0.0
 40
0.014
 41
0.014
  0
VERTEX
  8
0
 10
2.68121
 20
3.3125
 30
0.0
 40
0.014
 41
0.014
  0
VERTEX
  8
0
 10
2.75825
 20
3.3285
 30
0.0
 40
0.014
 41
0.014
  0
VERTEX
  8
0
 10
2.82281
 20
3.35363
 30
0.0
 40
0.014
 41
0.014
  0
VERTEX
  8
0
 10
2.86762
 20
3.39985
 30
0.0
 40
0.014
 41
0.014
  0
VERTEX
  8
0
 10
2.88493
 20
3.45936
 30
0.0
 40
0.014
 41
0.014
  0
VERTEX
  8
0
 10
2.88525
 20
3.47922
 30
0.0
 40
0.014
 41
0.014
  0
VERTEX
  8
0
 10
3.01417
 20
3.47922
 30
0.0
 40
0.014
 41
0.014
  0
VERTEX
  8
0
 10
3.01417
 20
3.63178
 30
0.0
 40
0.014
 41
0.014
  0
VERTEX
  8
0
 10
3.04508
 20
3.63482
 30
0.0
 40
0.014
 41
0.014
  0
VERTEX
  8
0
 10
3.13687
 20
3.65483
 30
0.0
 40
0.014
 41
0.014
  0
VERTEX
  8
0
 10
3.23768
 20
3.69564
 30
0.0
 40
0.014
 41
0.014
  0
VERTEX
  8
0
 10
3.32026
 20
3.75168
 30
0.0
 40
0.014
 41
0.014
  0
VERTEX
  8
0
 10
3.38824
 20
3.82047
 30
0.0
 40
0.014
 41
0.014
  0
VERTEX
  8
0
 10
3.44532
 20
3.89936
 30
0.0
 40
0.014
 41
0.014
  0
VERTEX
  8
0
 10
3.49511
 20
3.98579
 30
0.0
 40
0.014
 41
0.014
  0
VERTEX
  8
0
 10
3.54135
 20
4.07731
 30
0.0
 40
0.014
 41
0.014
  0
VERTEX
  8
0
 10
3.58768
 20
4.17128
 30
0.0
 40
0.014
 41
0.014
  0
VERTEX
  8
0
 10
3.63775
 20
4.26514
 30
0.0
 40
0.014
 41
0.014
  0
VERTEX
  8
0
 10
3.69526
 20
4.35633
 30
0.0
 40
0.014
 41
0.014
  0
VERTEX
  8
0
 10
3.76389
 20
4.44239
 30
0.0
 40
0.014
 41
0.014
  0
VERTEX
  8
0
 10
3.84728
 20
4.52061
 30
0.0
 40
0.014
 41
0.014
  0
VERTEX
  8
0
 10
3.94911
 20
4.58854
 30
0.0
 40
0.014
 41
0.014
  0
VERTEX
  8
0
 10
4.07308
 20
4.64361
 30
0.0
 40
0.014
 41
0.014
  0
VERTEX
  8
0
 10
4.22282
 20
4.68326
 30
0.0
 40
0.014
 41
0.014
  0
VERTEX
  8
0
 10
4.35704
 20
4.70215
 30
0.0
 40
0.014
 41
0.014
  0
VERTEX
  8
0
 10
4.40201
 20
4.70486
 30
0.0
 40
0.014
 41
0.014
  0
VERTEX
  8
0
 10
4.40201
 20
5.00336
 30
0.0
 40
0.014
 41
0.014
  0
VERTEX
  8
0
 10
3.94906
 20
4.97478
 30
0.0
 40
0.014
 41
0.014
  0
VERTEX
  8
0
 10
2.26926
 20
3.47276
 30
0.0
 40
0.014
 41
0.014
  0
SEQEND
 8
0
  0
POLYLINE
  8
0
 62
     253
 66
     1
 10
0
 20
0
 30
0.0
 70
     1
 40
0
 41
0
  0
VERTEX
  8
0
 10
2.26926
 20
3.47276
 30
0.0
 40
0
 41
0
  0
VERTEX
  8
0
 10
2.26926
 20
3.0981
 30
0.0
 40
0
 41
0
  0
VERTEX
  8
0
 10
2.39626
 20
3.0981
 30
0.0
 40
0
 41
0
  0
VERTEX
  8
0
 10
2.40528
 20
3.12463
 30
0.0
 40
0
 41
0
  0
VERTEX
  8
0
 10
2.44928
 20
3.1984
 30
0.0
 40
0
 41
0
  0
VERTEX
  8
0
 10
2.51938
 20
3.2595
 30
0.0
 40
0
 41
0
  0
VERTEX
  8
0
 10
2.59912
 20
3.29351
 30
0.0
 40
0
 41
0
  0
VERTEX
  8
0
 10
2.68121
 20
3.3125
 30
0.0
 40
0
 41
0
  0
VERTEX
  8
0
 10
2.75825
 20
3.3285
 30
0.0
 40
0
 41
0
  0
VERTEX
  8
0
 10
2.82281
 20
3.35363
 30
0.0
 40
0
 41
0
  0
VERTEX
  8
0
 10
2.86762
 20
3.39985
 30
0.0
 40
0
 41
0
  0
VERTEX
  8
0
 10
2.88493
 20
3.45936
 30
0.0
 40
0
 41
0
  0
VERTEX
  8
0
 10
2.88525
 20
3.47922
 30
0.0
 40
0
 41
0
  0
VERTEX
  8
0
 10
3.01417
 20
3.47922
 30
0.0
 40
0
 41
0
  0
VERTEX
  8
0
 10
3.01417
 20
3.63178
 30
0.0
 40
0
 41
0
  0
VERTEX
  8
0
 10
3.04508
 20
3.63482
 30
0.0
 40
0
 41
0
  0
VERTEX
  8
0
 10
3.13687
 20
3.65483
 30
0.0
 40
0
 41
0
  0
VERTEX
  8
0
 10
3.23768
 20
3.69564
 30
0.0
 40
0
 41
0
  0
VERTEX
  8
0
 10
3.32026
 20
3.75168
 30
0.0
 40
0
 41
0
  0
VERTEX
  8
0
 10
3.38824
 20
3.82047
 30
0.0
 40
0
 41
0
  0
VERTEX
  8
0
 10
3.44532
 20
3.89936
 30
0.0
 40
0
 41
0
  0
VERTEX
  8
0
 10
3.49511
 20
3.98579
 30
0.0
 40
0
 41
0
  0
VERTEX
  8
0
 10
3.54135
 20
4.07731
 30
0.0
 40
0
 41
0
  0
VERTEX
  8
0
 10
3.58768
 20
4.17128
 30
0.0
 40
0
 41
0
  0
VERTEX
  8
0
 10
3.63775
 20
4.26514
 30
0.0
 40
0
 41
0
  0
VERTEX
  8
0
 10
3.69526
 20
4.35633
 30
0.0
 40
0
 41
0
  0
VERTEX
  8
0
 10
3.76389
 20
4.44239
 30
0.0
 40
0
 41
0
  0
VERTEX
  8
0
 10
3.84728
 20
4.52061
 30
0.0
 40
0
 41
0
  0
VERTEX
  8
0
 10
3.94911
 20
4.58854
 30
0.0
 40
0
 41
0
  0
VERTEX
  8
0
 10
4.07308
 20
4.64361
 30
0.0
 40
0
 41
0
  0
VERTEX
  8
0
 10
4.22282
 20
4.68326
 30
0.0
 40
0
 41
0
  0
VERTEX
  8
0
 10
4.35704
 20
4.70215
 30
0.0
 40
0
 41
0
  0
VERTEX
  8
0
 10
4.40201
 20
4.70486
 30
0.0
 40
0
 41
0
  0
VERTEX
  8
0
 10
4.40201
 20
5.00336
 30
0.0
 40
0
 41
0
  0
VERTEX
  8
0
 10
3.94906
 20
4.97478
 30
0.0
 40
0
 41
0
  0
VERTEX
  8
0
 10
2.26926
 20
3.47276
 30
0.0
 40
0
 41
0
  0
SEQEND
 8
0
  0
POLYLINE
  8
0
 62
     0
 66
     1
 10
0
 20
0
 30
0.0
 70
     1
 40
1.008
 41
1.008
  0
VERTEX
  8
0
 10
2.26926
 20
3.47276
 30
0.0
 40
0.014
 41
0.014
  0
VERTEX
  8
0
 10
2.26926
 20
3.0981
 30
0.0
 40
0.014
 41
0.014
  0
VERTEX
  8
0
 10
2.39626
 20
3.0981
 30
0.0
 40
0.014
 41
0.014
  0
VERTEX
  8
0
 10
2.40528
 20
3.12463
 30
0.0
 40
0.014
 41
0.014
  0
VERTEX
  8
0
 10
2.44928
 20
3.1984
 30
0.0
 40
0.014
 41
0.014
  0
VERTEX
  8
0
 10
2.51938
 20
3.2595
 30
0.0
 40
0.014
 41
0.014
  0
VERTEX
  8
0
 10
2.59912
 20
3.29351
 30
0.0
 40
0.014
 41
0.014
  0
VERTEX
  8
0
 10
2.68121
 20
3.3125
 30
0.0
 40
0.014
 41
0.014
  0
VERTEX
  8
0
 10
2.75825
 20
3.3285
 30
0.0
 40
0.014
 41
0.014
  0
VERTEX
  8
0
 10
2.82281
 20
3.35363
 30
0.0
 40
0.014
 41
0.014
  0
VERTEX
  8
0
 10
2.86762
 20
3.39985
 30
0.0
 40
0.014
 41
0.014
  0
VERTEX
  8
0
 10
2.88493
 20
3.45936
 30
0.0
 40
0.014
 41
0.014
  0
VERTEX
  8
0
 10
2.88525
 20
3.47922
 30
0.0
 40
0.014
 41
0.014
  0
VERTEX
  8
0
 10
3.01417
 20
3.47922
 30
0.0
 40
0.014
 41
0.014
  0
VERTEX
  8
0
 10
3.01417
 20
3.63178
 30
0.0
 40
0.014
 41
0.014
  0
VERTEX
  8
0
 10
3.04508
 20
3.63482
 30
0.0
 40
0.014
 41
0.014
  0
VERTEX
  8
0
 10
3.13687
 20
3.65483
 30
0.0
 40
0.014
 41
0.014
  0
VERTEX
  8
0
 10
3.23768
 20
3.69564
 30
0.0
 40
0.014
 41
0.014
  0
VERTEX
  8
0
 10
3.32026
 20
3.75168
 30
0.0
 40
0.014
 41
0.014
  0
VERTEX
  8
0
 10
3.38824
 20
3.82047
 30
0.0
 40
0.014
 41
0.014
  0
VERTEX
  8
0
 10
3.44532
 20
3.89936
 30
0.0
 40
0.014
 41
0.014
  0
VERTEX
  8
0
 10
3.49511
 20
3.98579
 30
0.0
 40
0.014
 41
0.014
  0
VERTEX
  8
0
 10
3.54135
 20
4.07731
 30
0.0
 40
0.014
 41
0.014
  0
VERTEX
  8
0
 10
3.58768
 20
4.17128
 30
0.0
 40
0.014
 41
0.014
  0
VERTEX
  8
0
 10
3.63775
 20
4.26514
 30
0.0
 40
0.014
 41
0.014
  0
VERTEX
  8
0
 10
3.69526
 20
4.35633
 30
0.0
 40
0.014
 41
0.014
  0
VERTEX
  8
0
 10
3.76389
 20
4.44239
 30
0.0
 40
0.014
 41
0.014
  0
VERTEX
  8
0
 10
3.84728
 20
4.52061
 30
0.0
 40
0.014
 41
0.014
  0
VERTEX
  8
0
 10
3.94911
 20
4.58854
 30
0.0
 40
0.014
 41
0.014
  0
VERTEX
  8
0
 10
4.07308
 20
4.64361
 30
0.0
 40
0.014
 41
0.014
  0
VERTEX
  8
0
 10
4.22282
 20
4.68326
 30
0.0
 40
0.014
 41
0.014
  0
VERTEX
  8
0
 10
4.35704
 20
4.70215
 30
0.0
 40
0.014
 41
0.014
  0
VERTEX
  8
0
 10
4.40201
 20
4.70486
 30
0.0
 40
0.014
 41
0.014
  0
VERTEX
  8
0
 10
4.40201
 20
5.00336
 30
0.0
 40
0.014
 41
0.014
  0
VERTEX
  8
0
 10
3.94906
 20
4.97478
 30
0.0
 40
0.014
 41
0.014
  0
VERTEX
  8
0
 10
2.26926
 20
3.47276
 30
0.0
 40
0.014
 41
0.014
  0
SEQEND
 8
0
  0
POLYLINE
  8
0
 62
     0
 66
     1
 10
0
 20
0
 30
0.0
 70
     1
 40
0.50003
 41
0.50003
  0
VERTEX
  8
0
 10
2.28369
 20
3.82135
 30
0.0
 40
0.00694486
 41
0.00694486
  0
VERTEX
  8
0
 10
2.28369
 20
3.78065
 30
0.0
 40
0.00694486
 41
0.00694486
  0
VERTEX
  8
0
 10
2.30914
 20
3.78065
 30
0.0
 40
0.00694486
 41
0.00694486
  0
VERTEX
  8
0
 10
2.31093
 20
3.78597
 30
0.0
 40
0.00694486
 41
0.00694486
  0
VERTEX
  8
0
 10
2.31972
 20
3.80072
 30
0.0
 40
0.00694486
 41
0.00694486
  0
VERTEX
  8
0
 10
2.33371
 20
3.81299
 30
0.0
 40
0.00694486
 41
0.00694486
  0
VERTEX
  8
0
 10
2.34967
 20
3.81976
 30
0.0
 40
0.00694486
 41
0.00694486
  0
VERTEX
  8
0
 10
2.3661
 20
3.82357
 30
0.0
 40
0.00694486
 41
0.00694486
  0
VERTEX
  8
0
 10
2.38151
 20
3.82676
 30
0.0
 40
0.00694486
 41
0.00694486
  0
VERTEX
  8
0
 10
2.39442
 20
3.83182
 30
0.0
 40
0.00694486
 41
0.00694486
  0
VERTEX
  8
0
 10
2.40338
 20
3.84104
 30
0.0
 40
0.00694486
 41
0.00694486
  0
VERTEX
  8
0
 10
2.40685
 20
3.85292
 30
0.0
 40
0.00694486
 41
0.00694486
  0
VERTEX
  8
0
 10
2.4069
 20
3.85688
 30
0.0
 40
0.00694486
 41
0.00694486
  0
VERTEX
  8
0
 10
2.43267
 20
3.85688
 30
0.0
 40
0.00694486
 41
0.00694486
  0
VERTEX
  8
0
 10
2.43267
 20
3.88743
 30
0.0
 40
0.00694486
 41
0.00694486
  0
VERTEX
  8
0
 10
2.44401
 20
3.88857
 30
0.0
 40
0.00694486
 41
0.00694486
  0
VERTEX
  8
0
 10
2.47738
 20
3.90022
 30
0.0
 40
0.00694486
 41
0.00694486
  0
VERTEX
  8
0
 10
2.50749
 20
3.92518
 30
0.0
 40
0.00694486
 41
0.00694486
  0
VERTEX
  8
0
 10
2.52886
 20
3.95822
 30
0.0
 40
0.00694486
 41
0.00694486
  0
VERTEX
  8
0
 10
2.54736
 20
3.99533
 30
0.0
 40
0.00694486
 41
0.00694486
  0
VERTEX
  8
0
 10
2.5689
 20
4.03233
 30
0.0
 40
0.00694486
 41
0.00694486
  0
VERTEX
  8
0
 10
2.59928
 20
4.06521
 30
0.0
 40
0.00694486
 41
0.00694486
  0
VERTEX
  8
0
 10
2.64447
 20
4.08979
 30
0.0
 40
0.00694486
 41
0.00694486
  0
VERTEX
  8
0
 10
2.69368
 20
4.10101
 30
0.0
 40
0.00694486
 41
0.00694486
  0
VERTEX
  8
0
 10
2.71029
 20
4.102
 30
0.0
 40
0.00694486
 41
0.00694486
  0
VERTEX
  8
0
 10
2.71029
 20
4.16174
 30
0.0
 40
0.00694486
 41
0.00694486
  0
VERTEX
  8
0
 10
2.66092
 20
4.15918
 30
0.0
 40
0.00694486
 41
0.00694486
  0
VERTEX
  8
0
 10
2.28369
 20
3.82135
 30
0.0
 40
0.00694486
 41
0.00694486
  0
SEQEND
 8
0
  0
POLYLINE
  8
0
 62
     0
 66
     1
 10
0
 20
0
 30
0.0
 70
     1
 40
0
 41
0
  0
VERTEX
  8
0
 10
2.16032
 20
3.85064
 30
0.0
 40
0
 41
0
  0
VERTEX
  8
0
 10
2.15267
 20
3.86632
 30
0.0
 40
0
 41
0
  0
VERTEX
  8
0
 10
2.15267
 20
3.86789
 30
0.0
 40
0
 41
0
  0
VERTEX
  8
0
 10
2.20703
 20
3.86789
 30
0.0
 40
0
 41
0
  0
VERTEX
  8
0
 10
2.20871
 20
3.86789
 30
0.0
 40
0
 41
0
  0
VERTEX
  8
0
 10
2.21349
 20
3.86828
 30
0.0
 40
0
 41
0
  0
VERTEX
  8
0
 10
2.21376
 20
3.86833
 30
0.0
 40
0
 41
0
  0
VERTEX
  8
0
 10
2.21397
 20
3.86843
 30
0.0
 40
0
 41
0
  0
VERTEX
  8
0
 10
2.2156
 20
3.87001
 30
0.0
 40
0
 41
0
  0
VERTEX
  8
0
 10
2.21576
 20
3.87022
 30
0.0
 40
0
 41
0
  0
VERTEX
  8
0
 10
2.21588
 20
3.8705
 30
0.0
 40
0
 41
0
  0
VERTEX
  8
0
 10
2.21653
 20
3.87532
 30
0.0
 40
0
 41
0
  0
VERTEX
  8
0
 10
2.21658
 20
3.87603
 30
0.0
 40
0
 41
0
  0
VERTEX
  8
0
 10
2.21838
 20
3.87603
 30
0.0
 40
0
 41
0
  0
VERTEX
  8
0
 10
2.21838
 20
3.85178
 30
0.0
 40
0
 41
0
  0
VERTEX
  8
0
 10
2.21658
 20
3.85178
 30
0.0
 40
0
 41
0
  0
VERTEX
  8
0
 10
2.21653
 20
3.85254
 30
0.0
 40
0
 41
0
  0
VERTEX
  8
0
 10
2.21593
 20
3.85747
 30
0.0
 40
0
 41
0
  0
VERTEX
  8
0
 10
2.21582
 20
3.85769
 30
0.0
 40
0
 41
0
  0
VERTEX
  8
0
 10
2.21565
 20
3.85792
 30
0.0
 40
0
 41
0
  0
VERTEX
  8
0
 10
2.21414
 20
3.85949
 30
0.0
 40
0
 41
0
  0
VERTEX
  8
0
 10
2.21397
 20
3.85954
 30
0.0
 40
0
 41
0
  0
VERTEX
  8
0
 10
2.21376
 20
3.85965
 30
0.0
 40
0
 41
0
  0
VERTEX
  8
0
 10
2.20871
 20
3.86003
 30
0.0
 40
0
 41
0
  0
VERTEX
  8
0
 10
2.20703
 20
3.86003
 30
0.0
 40
0
 41
0
  0
VERTEX
  8
0
 10
2.17225
 20
3.86003
 30
0.0
 40
0
 41
0
  0
VERTEX
  8
0
 10
2.16997
 20
3.86003
 30
0.0
 40
0
 41
0
  0
VERTEX
  8
0
 10
2.16357
 20
3.85969
 30
0.0
 40
0
 41
0
  0
VERTEX
  8
0
 10
2.16325
 20
3.8596
 30
0.0
 40
0
 41
0
  0
VERTEX
  8
0
 10
2.16297
 20
3.85954
 30
0.0
 40
0
 41
0
  0
VERTEX
  8
0
 10
2.16114
 20
3.85851
 30
0.0
 40
0
 41
0
  0
VERTEX
  8
0
 10
2.16103
 20
3.85835
 30
0.0
 40
0
 41
0
  0
VERTEX
  8
0
 10
2.16086
 20
3.85824
 30
0.0
 40
0
 41
0
  0
VERTEX
  8
0
 10
2.16032
 20
3.85678
 30
0.0
 40
0
 41
0
  0
VERTEX
  8
0
 10
2.16032
 20
3.85628
 30
0.0
 40
0
 41
0
  0
VERTEX
  8
0
 10
2.16032
 20
3.85628
 30
0.0
 40
0
 41
0
  0
VERTEX
  8
0
 10
2.16151
 20
3.85189
 30
0.0
 40
0
 41
0
  0
VERTEX
  8
0
 10
2.16178
 20
3.85135
 30
0.0
 40
0
 41
0
  0
VERTEX
  8
0
 10
2.16032
 20
3.85064
 30
0.0
 40
0
 41
0
  0
SEQEND
 8
0
  0
POLYLINE
  8
0
 62
     0
 66
     1
 10
0
 20
0
 30
0.0
 70
     1
 40
0
 41
0
  0
VERTEX
  8
0
 10
2.19299
 20
3.89182
 30
0.0
 40
0
 41
0
  0
VERTEX
  8
0
 10
2.19299
 20
3.91635
 30
0.0
 40
0
 41
0
  0
VERTEX
  8
0
 10
2.20014
 20
3.91635
 30
0.0
 40
0
 41
0
  0
VERTEX
  8
0
 10
2.20014
 20
3.89182
 30
0.0
 40
0
 41
0
  0
VERTEX
  8
0
 10
2.19299
 20
3.89182
 30
0.0
 40
0
 41
0
  0
SEQEND
 8
0
  0
POLYLINE
  8
0
 62
     0
 66
     1
 10
0
 20
0
 30
0.0
 70
     1
 40
0
 41
0
  0
VERTEX
  8
0
 10
2.15397
 20
3.93001
 30
0.0
 40
0
 41
0
  0
VERTEX
  8
0
 10
2.15397
 20
3.96451
 30
0.0
 40
0
 41
0
  0
VERTEX
  8
0
 10
2.15582
 20
3.96451
 30
0.0
 40
0
 41
0
  0
VERTEX
  8
0
 10
2.21967
 20
3.94308
 30
0.0
 40
0
 41
0
  0
VERTEX
  8
0
 10
2.21967
 20
3.93778
 30
0.0
 40
0
 41
0
  0
VERTEX
  8
0
 10
2.16174
 20
3.95697
 30
0.0
 40
0
 41
0
  0
VERTEX
  8
0
 10
2.16174
 20
3.93929
 30
0.0
 40
0
 41
0
  0
VERTEX
  8
0
 10
2.16174
 20
3.93739
 30
0.0
 40
0
 41
0
  0
VERTEX
  8
0
 10
2.16276
 20
3.93201
 30
0.0
 40
0
 41
0
  0
VERTEX
  8
0
 10
2.16297
 20
3.93164
 30
0.0
 40
0
 41
0
  0
VERTEX
  8
0
 10
2.16331
 20
3.93099
 30
0.0
 40
0
 41
0
  0
VERTEX
  8
0
 10
2.169
 20
3.92567
 30
0.0
 40
0
 41
0
  0
VERTEX
  8
0
 10
2.16976
 20
3.92524
 30
0.0
 40
0
 41
0
  0
VERTEX
  8
0
 10
2.16922
 20
3.92389
 30
0.0
 40
0
 41
0
  0
VERTEX
  8
0
 10
2.15397
 20
3.93001
 30
0.0
 40
0
 41
0
  0
SEQEND
 8
0
  0
POLYLINE
  8
0
 62
     0
 66
     1
 10
0
 20
0
 30
0.0
 70
     1
 40
0
 41
0
  0
VERTEX
  8
0
 10
2.15088
 20
3.9961
 30
0.0
 40
0
 41
0
  0
VERTEX
  8
0
 10
2.21967
 20
3.97276
 30
0.0
 40
0
 41
0
  0
VERTEX
  8
0
 10
2.21967
 20
3.96903
 30
0.0
 40
0
 41
0
  0
VERTEX
  8
0
 10
2.15088
 20
3.99229
 30
0.0
 40
0
 41
0
  0
VERTEX
  8
0
 10
2.15088
 20
3.9961
 30
0.0
 40
0
 41
0
  0
SEQEND
 8
0
  0
POLYLINE
  8
0
 62
     0
 66
     1
 10
0
 20
0
 30
0.0
 70
     1
 40
0
 41
0
  0
VERTEX
  8
0
 10
2.18593
 20
4.01454
 30
0.0
 40
0
 41
0
  0
VERTEX
  8
0
 10
2.18485
 20
4.01329
 30
0.0
 40
0
 41
0
  0
VERTEX
  8
0
 10
2.17649
 20
4.00504
 30
0.0
 40
0
 41
0
  0
VERTEX
  8
0
 10
2.17589
 20
4.00467
 30
0.0
 40
0
 41
0
  0
VERTEX
  8
0
 10
2.17524
 20
4.00435
 30
0.0
 40
0
 41
0
  0
VERTEX
  8
0
 10
2.16982
 20
4.00244
 30
0.0
 40
0
 41
0
  0
VERTEX
  8
0
 10
2.16803
 20
4.00244
 30
0.0
 40
0
 41
0
  0
VERTEX
  8
0
 10
2.16531
 20
4.00244
 30
0.0
 40
0
 41
0
  0
VERTEX
  8
0
 10
2.15793
 20
4.00651
 30
0.0
 40
0
 41
0
  0
VERTEX
  8
0
 10
2.15717
 20
4.00732
 30
0.0
 40
0
 41
0
  0
VERTEX
  8
0
 10
2.15642
 20
4.00814
 30
0.0
 40
0
 41
0
  0
VERTEX
  8
0
 10
2.15267
 20
4.01719
 30
0.0
 40
0
 41
0
  0
VERTEX
  8
0
 10
2.15267
 20
4.02018
 30
0.0
 40
0
 41
0
  0
VERTEX
  8
0
 10
2.15267
 20
4.02333
 30
0.0
 40
0
 41
0
  0
VERTEX
  8
0
 10
2.15619
 20
4.03196
 30
0.0
 40
0
 41
0
  0
VERTEX
  8
0
 10
2.1569
 20
4.03272
 30
0.0
 40
0
 41
0
  0
VERTEX
  8
0
 10
2.15761
 20
4.03353
 30
0.0
 40
0
 41
0
  0
VERTEX
  8
0
 10
2.16428
 20
4.03743
 30
0.0
 40
0
 41
0
  0
VERTEX
  8
0
 10
2.1665
 20
4.03743
 30
0.0
 40
0
 41
0
  0
VERTEX
  8
0
 10
2.16835
 20
4.03743
 30
0.0
 40
0
 41
0
  0
VERTEX
  8
0
 10
2.17324
 20
4.03532
 30
0.0
 40
0
 41
0
  0
VERTEX
  8
0
 10
2.17389
 20
4.03489
 30
0.0
 40
0
 41
0
  0
VERTEX
  8
0
 10
2.17449
 20
4.0345
 30
0.0
 40
0
 41
0
  0
VERTEX
  8
0
 10
2.18186
 20
4.02556
 30
0.0
 40
0
 41
0
  0
VERTEX
  8
0
 10
2.18272
 20
4.02419
 30
0.0
 40
0
 41
0
  0
VERTEX
  8
0
 10
2.18375
 20
4.02561
 30
0.0
 40
0
 41
0
  0
VERTEX
  8
0
 10
2.19222
 20
4.03483
 30
0.0
 40
0
 41
0
  0
VERTEX
  8
0
 10
2.19287
 20
4.03526
 30
0.0
 40
0
 41
0
  0
VERTEX
  8
0
 10
2.19362
 20
4.03586
 30
0.0
 40
0
 41
0
  0
VERTEX
  8
0
 10
2.20068
 20
4.03885
 30
0.0
 40
0
 41
0
  0
VERTEX
  8
0
 10
2.20307
 20
4.03885
 30
0.0
 40
0
 41
0
  0
VERTEX
  8
0
 10
2.20594
 20
4.03885
 30
0.0
 40
0
 41
0
  0
VERTEX
  8
0
 10
2.21386
 20
4.03456
 30
0.0
 40
0
 41
0
  0
VERTEX
  8
0
 10
2.21468
 20
4.03369
 30
0.0
 40
0
 41
0
  0
VERTEX
  8
0
 10
2.21544
 20
4.03282
 30
0.0
 40
0
 41
0
  0
VERTEX
  8
0
 10
2.21951
 20
4.02333
 30
0.0
 40
0
 41
0
  0
VERTEX
  8
0
 10
2.21951
 20
4.02013
 30
0.0
 40
0
 41
0
  0
VERTEX
  8
0
 10
2.21951
 20
4.01654
 30
0.0
 40
0
 41
0
  0
VERTEX
  8
0
 10
2.21468
 20
4.00667
 30
0.0
 40
0
 41
0
  0
VERTEX
  8
0
 10
2.21376
 20
4.00581
 30
0.0
 40
0
 41
0
  0
VERTEX
  8
0
 10
2.21294
 20
4.00515
 30
0.0
 40
0
 41
0
  0
VERTEX
  8
0
 10
2.20594
 20
4.00174
 30
0.0
 40
0
 41
0
  0
VERTEX
  8
0
 10
2.20367
 20
4.00174
 30
0.0
 40
0
 41
0
  0
VERTEX
  8
0
 10
2.20156
 20
4.00174
 30
0.0
 40
0
 41
0
  0
VERTEX
  8
0
 10
2.1959
 20
4.00418
 30
0.0
 40
0
 41
0
  0
VERTEX
  8
0
 10
2.19521
 20
4.00461
 30
0.0
 40
0
 41
0
  0
VERTEX
  8
0
 10
2.1945
 20
4.0051
 30
0.0
 40
0
 41
0
  0
VERTEX
  8
0
 10
2.18674
 20
4.0134
 30
0.0
 40
0
 41
0
  0
VERTEX
  8
0
 10
2.18593
 20
4.01454
 30
0.0
 40
0
 41
0
  0
SEQEND
 8
0
  0
POLYLINE
  8
0
 62
     0
 66
     1
 10
0
 20
0
 30
0.0
 70
     1
 40
0
 41
0
  0
VERTEX
  8
0
 10
2.18087
 20
4.02197
 30
0.0
 40
0
 41
0
  0
VERTEX
  8
0
 10
2.18001
 20
4.02294
 30
0.0
 40
0
 41
0
  0
VERTEX
  8
0
 10
2.17324
 20
4.02897
 30
0.0
 40
0
 41
0
  0
VERTEX
  8
0
 10
2.17274
 20
4.02919
 30
0.0
 40
0
 41
0
  0
VERTEX
  8
0
 10
2.17225
 20
4.02946
 30
0.0
 40
0
 41
0
  0
VERTEX
  8
0
 10
2.16753
 20
4.03071
 30
0.0
 40
0
 41
0
  0
VERTEX
  8
0
 10
2.16601
 20
4.03071
 30
0.0
 40
0
 41
0
  0
VERTEX
  8
0
 10
2.16407
 20
4.03071
 30
0.0
 40
0
 41
0
  0
VERTEX
  8
0
 10
2.15869
 20
4.02843
 30
0.0
 40
0
 41
0
  0
VERTEX
  8
0
 10
2.15826
 20
4.02794
 30
0.0
 40
0
 41
0
  0
VERTEX
  8
0
 10
2.15776
 20
4.02751
 30
0.0
 40
0
 41
0
  0
VERTEX
  8
0
 10
2.15539
 20
4.02111
 30
0.0
 40
0
 41
0
  0
VERTEX
  8
0
 10
2.15539
 20
4.02029
 30
0.0
 40
0
 41
0
  0
VERTEX
  8
0
 10
2.15539
 20
4.01833
 30
0.0
 40
0
 41
0
  0
VERTEX
  8
0
 10
2.15771
 20
4.01292
 30
0.0
 40
0
 41
0
  0
VERTEX
  8
0
 10
2.15821
 20
4.01237
 30
0.0
 40
0
 41
0
  0
VERTEX
  8
0
 10
2.15864
 20
4.01188
 30
0.0
 40
0
 41
0
  0
VERTEX
  8
0
 10
2.16319
 20
4.00933
 30
0.0
 40
0
 41
0
  0
VERTEX
  8
0
 10
2.16476
 20
4.00933
 30
0.0
 40
0
 41
0
  0
VERTEX
  8
0
 10
2.16596
 20
4.00933
 30
0.0
 40
0
 41
0
  0
VERTEX
  8
0
 10
2.16926
 20
4.01042
 30
0.0
 40
0
 41
0
  0
VERTEX
  8
0
 10
2.16971
 20
4.01064
 30
0.0
 40
0
 41
0
  0
VERTEX
  8
0
 10
2.17008
 20
4.01085
 30
0.0
 40
0
 41
0
  0
VERTEX
  8
0
 10
2.17399
 20
4.01383
 30
0.0
 40
0
 41
0
  0
VERTEX
  8
0
 10
2.17437
 20
4.01421
 30
0.0
 40
0
 41
0
  0
VERTEX
  8
0
 10
2.18087
 20
4.02197
 30
0.0
 40
0
 41
0
  0
SEQEND
 8
0
  0
POLYLINE
  8
0
 62
     0
 66
     1
 10
0
 20
0
 30
0.0
 70
     1
 40
0
 41
0
  0
VERTEX
  8
0
 10
2.18772
 20
4.01676
 30
0.0
 40
0
 41
0
  0
VERTEX
  8
0
 10
2.18826
 20
4.01611
 30
0.0
 40
0
 41
0
  0
VERTEX
  8
0
 10
2.19433
 20
4.01124
 30
0.0
 40
0
 41
0
  0
VERTEX
  8
0
 10
2.19499
 20
4.0109
 30
0.0
 40
0
 41
0
  0
VERTEX
  8
0
 10
2.19564
 20
4.01064
 30
0.0
 40
0
 41
0
  0
VERTEX
  8
0
 10
2.2015
 20
4.009
 30
0.0
 40
0
 41
0
  0
VERTEX
  8
0
 10
2.20344
 20
4.009
 30
0.0
 40
0
 41
0
  0
VERTEX
  8
0
 10
2.20589
 20
4.009
 30
0.0
 40
0
 41
0
  0
VERTEX
  8
0
 10
2.21263
 20
4.01183
 30
0.0
 40
0
 41
0
  0
VERTEX
  8
0
 10
2.21326
 20
4.01237
 30
0.0
 40
0
 41
0
  0
VERTEX
  8
0
 10
2.21386
 20
4.01297
 30
0.0
 40
0
 41
0
  0
VERTEX
  8
0
 10
2.2169
 20
4.01893
 30
0.0
 40
0
 41
0
  0
VERTEX
  8
0
 10
2.2169
 20
4.02089
 30
0.0
 40
0
 41
0
  0
VERTEX
  8
0
 10
2.2169
 20
4.02294
 30
0.0
 40
0
 41
0
  0
VERTEX
  8
0
 10
2.21451
 20
4.0286
 30
0.0
 40
0
 41
0
  0
VERTEX
  8
0
 10
2.21403
 20
4.02908
 30
0.0
 40
0
 41
0
  0
VERTEX
  8
0
 10
2.21354
 20
4.02962
 30
0.0
 40
0
 41
0
  0
VERTEX
  8
0
 10
2.20865
 20
4.03217
 30
0.0
 40
0
 41
0
  0
VERTEX
  8
0
 10
2.20703
 20
4.03217
 30
0.0
 40
0
 41
0
  0
VERTEX
  8
0
 10
2.20546
 20
4.03217
 30
0.0
 40
0
 41
0
  0
VERTEX
  8
0
 10
2.20133
 20
4.03071
 30
0.0
 40
0
 41
0
  0
VERTEX
  8
0
 10
2.2009
 20
4.03039
 30
0.0
 40
0
 41
0
  0
VERTEX
  8
0
 10
2.20003
 20
4.02983
 30
0.0
 40
0
 41
0
  0
VERTEX
  8
0
 10
2.18907
 20
4.0185
 30
0.0
 40
0
 41
0
  0
VERTEX
  8
0
 10
2.18772
 20
4.01676
 30
0.0
 40
0
 41
0
  0
SEQEND
 8
0
  0
POLYLINE
  8
0
 62
     0
 66
     1
 10
0
 20
0
 30
0.0
 70
     1
 40
0
 41
0
  0
VERTEX
  8
0
 10
2.42144
 20
4.23281
 30
0.0
 40
0
 41
0
  0
VERTEX
  8
0
 10
2.41694
 20
4.22043
 30
0.0
 40
0
 41
0
  0
VERTEX
  8
0
 10
2.37896
 20
4.22043
 30
0.0
 40
0
 41
0
  0
VERTEX
  8
0
 10
2.37896
 20
4.22217
 30
0.0
 40
0
 41
0
  0
VERTEX
  8
0
 10
2.38172
 20
4.22472
 30
0.0
 40
0
 41
0
  0
VERTEX
  8
0
 10
2.40142
 20
4.24556
 30
0.0
 40
0
 41
0
  0
VERTEX
  8
0
 10
2.40256
 20
4.24713
 30
0.0
 40
0
 41
0
  0
VERTEX
  8
0
 10
2.40369
 20
4.24875
 30
0.0
 40
0
 41
0
  0
VERTEX
  8
0
 10
2.4094
 20
4.26085
 30
0.0
 40
0
 41
0
  0
VERTEX
  8
0
 10
2.4094
 20
4.26486
 30
0.0
 40
0
 41
0
  0
VERTEX
  8
0
 10
2.4094
 20
4.26742
 30
0.0
 40
0
 41
0
  0
VERTEX
  8
0
 10
2.40625
 20
4.27425
 30
0.0
 40
0
 41
0
  0
VERTEX
  8
0
 10
2.40565
 20
4.2749
 30
0.0
 40
0
 41
0
  0
VERTEX
  8
0
 10
2.405
 20
4.27561
 30
0.0
 40
0
 41
0
  0
VERTEX
  8
0
 10
2.39876
 20
4.27886
 30
0.0
 40
0
 41
0
  0
VERTEX
  8
0
 10
2.39671
 20
4.27886
 30
0.0
 40
0
 41
0
  0
VERTEX
  8
0
 10
2.39453
 20
4.27886
 30
0.0
 40
0
 41
0
  0
VERTEX
  8
0
 10
2.38878
 20
4.27658
 30
0.0
 40
0
 41
0
  0
VERTEX
  8
0
 10
2.38818
 20
4.2761
 30
0.0
 40
0
 41
0
  0
VERTEX
  8
0
 10
2.38753
 20
4.27567
 30
0.0
 40
0
 41
0
  0
VERTEX
  8
0
 10
2.38286
 20
4.26888
 30
0.0
 40
0
 41
0
  0
VERTEX
  8
0
 10
2.3826
 20
4.26796
 30
0.0
 40
0
 41
0
  0
VERTEX
  8
0
 10
2.38081
 20
4.26796
 30
0.0
 40
0
 41
0
  0
VERTEX
  8
0
 10
2.38097
 20
4.26942
 30
0.0
 40
0
 41
0
  0
VERTEX
  8
0
 10
2.38607
 20
4.28065
 30
0.0
 40
0
 41
0
  0
VERTEX
  8
0
 10
2.38693
 20
4.28142
 30
0.0
 40
0
 41
0
  0
VERTEX
  8
0
 10
2.38775
 20
4.28222
 30
0.0
 40
0
 41
0
  0
VERTEX
  8
0
 10
2.39632
 20
4.28614
 30
0.0
 40
0
 41
0
  0
VERTEX
  8
0
 10
2.39919
 20
4.28614
 30
0.0
 40
0
 41
0
  0
VERTEX
  8
0
 10
2.40246
 20
4.28614
 30
0.0
 40
0
 41
0
  0
VERTEX
  8
0
 10
2.4114
 20
4.28196
 30
0.0
 40
0
 41
0
  0
VERTEX
  8
0
 10
2.41228
 20
4.28108
 30
0.0
 40
0
 41
0
  0
VERTEX
  8
0
 10
2.41314
 20
4.28028
 30
0.0
 40
0
 41
0
  0
VERTEX
  8
0
 10
2.41754
 20
4.27197
 30
0.0
 40
0
 41
0
  0
VERTEX
  8
0
 10
2.41754
 20
4.26921
 30
0.0
 40
0
 41
0
  0
VERTEX
  8
0
 10
2.41754
 20
4.26676
 30
0.0
 40
0
 41
0
  0
VERTEX
  8
0
 10
2.41564
 20
4.26025
 30
0.0
 40
0
 41
0
  0
VERTEX
  8
0
 10
2.41525
 20
4.25944
 30
0.0
 40
0
 41
0
  0
VERTEX
  8
0
 10
2.41465
 20
4.25819
 30
0.0
 40
0
 41
0
  0
VERTEX
  8
0
 10
2.40517
 20
4.24463
 30
0.0
 40
0
 41
0
  0
VERTEX
  8
0
 10
2.40386
 20
4.24317
 30
0.0
 40
0
 41
0
  0
VERTEX
  8
0
 10
2.40186
 20
4.24104
 30
0.0
 40
0
 41
0
  0
VERTEX
  8
0
 10
2.3896
 20
4.22808
 30
0.0
 40
0
 41
0
  0
VERTEX
  8
0
 10
2.38911
 20
4.2276
 30
0.0
 40
0
 41
0
  0
VERTEX
  8
0
 10
2.40588
 20
4.2276
 30
0.0
 40
0
 41
0
  0
VERTEX
  8
0
 10
2.40767
 20
4.2276
 30
0.0
 40
0
 41
0
  0
VERTEX
  8
0
 10
2.41271
 20
4.22792
 30
0.0
 40
0
 41
0
  0
VERTEX
  8
0
 10
2.41308
 20
4.22797
 30
0.0
 40
0
 41
0
  0
VERTEX
  8
0
 10
2.41342
 20
4.22808
 30
0.0
 40
0
 41
0
  0
VERTEX
  8
0
 10
2.4165
 20
4.22933
 30
0.0
 40
0
 41
0
  0
VERTEX
  8
0
 10
2.41683
 20
4.22949
 30
0.0
 40
0
 41
0
  0
VERTEX
  8
0
 10
2.4171
 20
4.22971
 30
0.0
 40
0
 41
0
  0
VERTEX
  8
0
 10
2.41949
 20
4.23247
 30
0.0
 40
0
 41
0
  0
VERTEX
  8
0
 10
2.41971
 20
4.23281
 30
0.0
 40
0
 41
0
  0
VERTEX
  8
0
 10
2.42144
 20
4.23281
 30
0.0
 40
0
 41
0
  0
SEQEND
 8
0
  0
POLYLINE
  8
0
 62
     0
 66
     1
 10
0
 20
0
 30
0.0
 70
     1
 40
0
 41
0
  0
VERTEX
  8
0
 10
2.42942
 20
4.24582
 30
0.0
 40
0
 41
0
  0
VERTEX
  8
0
 10
2.454
 20
4.24582
 30
0.0
 40
0
 41
0
  0
VERTEX
  8
0
 10
2.454
 20
4.23867
 30
0.0
 40
0
 41
0
  0
VERTEX
  8
0
 10
2.42942
 20
4.23867
 30
0.0
 40
0
 41
0
  0
VERTEX
  8
0
 10
2.42942
 20
4.24582
 30
0.0
 40
0
 41
0
  0
SEQEND
 8
0
  0
POLYLINE
  8
0
 62
     0
 66
     1
 10
0
 20
0
 30
0.0
 70
     1
 40
0
 41
0
  0
VERTEX
  8
0
 10
2.46924
 20
4.27849
 30
0.0
 40
0
 41
0
  0
VERTEX
  8
0
 10
2.48492
 20
4.28614
 30
0.0
 40
0
 41
0
  0
VERTEX
  8
0
 10
2.48649
 20
4.28614
 30
0.0
 40
0
 41
0
  0
VERTEX
  8
0
 10
2.48649
 20
4.23178
 30
0.0
 40
0
 41
0
  0
VERTEX
  8
0
 10
2.48649
 20
4.23008
 30
0.0
 40
0
 41
0
  0
VERTEX
  8
0
 10
2.48682
 20
4.22526
 30
0.0
 40
0
 41
0
  0
VERTEX
  8
0
 10
2.48693
 20
4.22504
 30
0.0
 40
0
 41
0
  0
VERTEX
  8
0
 10
2.48699
 20
4.22483
 30
0.0
 40
0
 41
0
  0
VERTEX
  8
0
 10
2.48856
 20
4.22314
 30
0.0
 40
0
 41
0
  0
VERTEX
  8
0
 10
2.48882
 20
4.22299
 30
0.0
 40
0
 41
0
  0
VERTEX
  8
0
 10
2.48904
 20
4.22287
 30
0.0
 40
0
 41
0
  0
VERTEX
  8
0
 10
2.49388
 20
4.22222
 30
0.0
 40
0
 41
0
  0
VERTEX
  8
0
 10
2.49463
 20
4.22217
 30
0.0
 40
0
 41
0
  0
VERTEX
  8
0
 10
2.49463
 20
4.22043
 30
0.0
 40
0
 41
0
  0
VERTEX
  8
0
 10
2.47038
 20
4.22043
 30
0.0
 40
0
 41
0
  0
VERTEX
  8
0
 10
2.47038
 20
4.22217
 30
0.0
 40
0
 41
0
  0
VERTEX
  8
0
 10
2.47114
 20
4.22222
 30
0.0
 40
0
 41
0
  0
VERTEX
  8
0
 10
2.47607
 20
4.22287
 30
0.0
 40
0
 41
0
  0
VERTEX
  8
0
 10
2.47629
 20
4.22299
 30
0.0
 40
0
 41
0
  0
VERTEX
  8
0
 10
2.47651
 20
4.2231
 30
0.0
 40
0
 41
0
  0
VERTEX
  8
0
 10
2.47803
 20
4.22467
 30
0.0
 40
0
 41
0
  0
VERTEX
  8
0
 10
2.47814
 20
4.22483
 30
0.0
 40
0
 41
0
  0
VERTEX
  8
0
 10
2.47819
 20
4.22504
 30
0.0
 40
0
 41
0
  0
VERTEX
  8
0
 10
2.47868
 20
4.23008
 30
0.0
 40
0
 41
0
  0
VERTEX
  8
0
 10
2.47868
 20
4.23178
 30
0.0
 40
0
 41
0
  0
VERTEX
  8
0
 10
2.47868
 20
4.26654
 30
0.0
 40
0
 41
0
  0
VERTEX
  8
0
 10
2.47868
 20
4.26882
 30
0.0
 40
0
 41
0
  0
VERTEX
  8
0
 10
2.47825
 20
4.27522
 30
0.0
 40
0
 41
0
  0
VERTEX
  8
0
 10
2.47819
 20
4.27556
 30
0.0
 40
0
 41
0
  0
VERTEX
  8
0
 10
2.47814
 20
4.27582
 30
0.0
 40
0
 41
0
  0
VERTEX
  8
0
 10
2.47711
 20
4.27767
 30
0.0
 40
0
 41
0
  0
VERTEX
  8
0
 10
2.477
 20
4.27778
 30
0.0
 40
0
 41
0
  0
VERTEX
  8
0
 10
2.47683
 20
4.27789
 30
0.0
 40
0
 41
0
  0
VERTEX
  8
0
 10
2.47538
 20
4.27849
 30
0.0
 40
0
 41
0
  0
VERTEX
  8
0
 10
2.47487
 20
4.27849
 30
0.0
 40
0
 41
0
  0
VERTEX
  8
0
 10
2.47364
 20
4.27849
 30
0.0
 40
0
 41
0
  0
VERTEX
  8
0
 10
2.47049
 20
4.27729
 30
0.0
 40
0
 41
0
  0
VERTEX
  8
0
 10
2.47
 20
4.27701
 30
0.0
 40
0
 41
0
  0
VERTEX
  8
0
 10
2.46924
 20
4.27849
 30
0.0
 40
0
 41
0
  0
SEQEND
 8
0
  0
POLYLINE
  8
0
 62
     0
 66
     1
 10
0
 20
0
 30
0.0
 70
     1
 40
0
 41
0
  0
VERTEX
  8
0
 10
2.53375
 20
4.28792
 30
0.0
 40
0
 41
0
  0
VERTEX
  8
0
 10
2.51042
 20
4.21907
 30
0.0
 40
0
 41
0
  0
VERTEX
  8
0
 10
2.50663
 20
4.21907
 30
0.0
 40
0
 41
0
  0
VERTEX
  8
0
 10
2.52994
 20
4.28792
 30
0.0
 40
0
 41
0
  0
VERTEX
  8
0
 10
2.53375
 20
4.28792
 30
0.0
 40
0
 41
0
  0
SEQEND
 8
0
  0
POLYLINE
  8
0
 62
     0
 66
     1
 10
0
 20
0
 30
0.0
 70
     1
 40
0
 41
0
  0
VERTEX
  8
0
 10
2.55214
 20
4.25282
 30
0.0
 40
0
 41
0
  0
VERTEX
  8
0
 10
2.55083
 20
4.2539
 30
0.0
 40
0
 41
0
  0
VERTEX
  8
0
 10
2.54264
 20
4.26232
 30
0.0
 40
0
 41
0
  0
VERTEX
  8
0
 10
2.54226
 20
4.26292
 30
0.0
 40
0
 41
0
  0
VERTEX
  8
0
 10
2.54189
 20
4.26357
 30
0.0
 40
0
 41
0
  0
VERTEX
  8
0
 10
2.5401
 20
4.26899
 30
0.0
 40
0
 41
0
  0
VERTEX
  8
0
 10
2.5401
 20
4.27078
 30
0.0
 40
0
 41
0
  0
VERTEX
  8
0
 10
2.5401
 20
4.27349
 30
0.0
 40
0
 41
0
  0
VERTEX
  8
0
 10
2.54411
 20
4.28082
 30
0.0
 40
0
 41
0
  0
VERTEX
  8
0
 10
2.54492
 20
4.28157
 30
0.0
 40
0
 41
0
  0
VERTEX
  8
0
 10
2.54574
 20
4.28233
 30
0.0
 40
0
 41
0
  0
VERTEX
  8
0
 10
2.55474
 20
4.28614
 30
0.0
 40
0
 41
0
  0
VERTEX
  8
0
 10
2.55778
 20
4.28614
 30
0.0
 40
0
 41
0
  0
VERTEX
  8
0
 10
2.56087
 20
4.28614
 30
0.0
 40
0
 41
0
  0
VERTEX
  8
0
 10
2.5695
 20
4.28261
 30
0.0
 40
0
 41
0
  0
VERTEX
  8
0
 10
2.57032
 20
4.2819
 30
0.0
 40
0
 41
0
  0
VERTEX
  8
0
 10
2.57107
 20
4.28119
 30
0.0
 40
0
 41
0
  0
VERTEX
  8
0
 10
2.57508
 20
4.27453
 30
0.0
 40
0
 41
0
  0
VERTEX
  8
0
 10
2.57508
 20
4.27225
 30
0.0
 40
0
 41
0
  0
VERTEX
  8
0
 10
2.57508
 20
4.27046
 30
0.0
 40
0
 41
0
  0
VERTEX
  8
0
 10
2.57292
 20
4.26557
 30
0.0
 40
0
 41
0
  0
VERTEX
  8
0
 10
2.57249
 20
4.26492
 30
0.0
 40
0
 41
0
  0
VERTEX
  8
0
 10
2.57206
 20
4.26432
 30
0.0
 40
0
 41
0
  0
VERTEX
  8
0
 10
2.56315
 20
4.25694
 30
0.0
 40
0
 41
0
  0
VERTEX
  8
0
 10
2.56185
 20
4.25608
 30
0.0
 40
0
 41
0
  0
VERTEX
  8
0
 10
2.56321
 20
4.25504
 30
0.0
 40
0
 41
0
  0
VERTEX
  8
0
 10
2.57243
 20
4.24658
 30
0.0
 40
0
 41
0
  0
VERTEX
  8
0
 10
2.57292
 20
4.24593
 30
0.0
 40
0
 41
0
  0
VERTEX
  8
0
 10
2.57351
 20
4.24511
 30
0.0
 40
0
 41
0
  0
VERTEX
  8
0
 10
2.5765
 20
4.23807
 30
0.0
 40
0
 41
0
  0
VERTEX
  8
0
 10
2.5765
 20
4.23568
 30
0.0
 40
0
 41
0
  0
VERTEX
  8
0
 10
2.5765
 20
4.23281
 30
0.0
 40
0
 41
0
  0
VERTEX
  8
0
 10
2.57215
 20
4.22493
 30
0.0
 40
0
 41
0
  0
VERTEX
  8
0
 10
2.57135
 20
4.22412
 30
0.0
 40
0
 41
0
  0
VERTEX
  8
0
 10
2.57047
 20
4.22336
 30
0.0
 40
0
 41
0
  0
VERTEX
  8
0
 10
2.56087
 20
4.21929
 30
0.0
 40
0
 41
0
  0
VERTEX
  8
0
 10
2.55772
 20
4.21929
 30
0.0
 40
0
 41
0
  0
VERTEX
  8
0
 10
2.55414
 20
4.21929
 30
0.0
 40
0
 41
0
  0
VERTEX
  8
0
 10
2.54428
 20
4.22412
 30
0.0
 40
0
 41
0
  0
VERTEX
  8
0
 10
2.54346
 20
4.22504
 30
0.0
 40
0
 41
0
  0
VERTEX
  8
0
 10
2.54275
 20
4.22581
 30
0.0
 40
0
 41
0
  0
VERTEX
  8
0
 10
2.53939
 20
4.23281
 30
0.0
 40
0
 41
0
  0
VERTEX
  8
0
 10
2.53939
 20
4.23508
 30
0.0
 40
0
 41
0
  0
VERTEX
  8
0
 10
2.53939
 20
4.23719
 30
0.0
 40
0
 41
0
  0
VERTEX
  8
0
 10
2.54178
 20
4.24289
 30
0.0
 40
0
 41
0
  0
VERTEX
  8
0
 10
2.54226
 20
4.24354
 30
0.0
 40
0
 41
0
  0
VERTEX
  8
0
 10
2.54269
 20
4.24425
 30
0.0
 40
0
 41
0
  0
VERTEX
  8
0
 10
2.55094
 20
4.25201
 30
0.0
 40
0
 41
0
  0
VERTEX
  8
0
 10
2.55214
 20
4.25282
 30
0.0
 40
0
 41
0
  0
SEQEND
 8
0
  0
POLYLINE
  8
0
 62
     0
 66
     1
 10
0
 20
0
 30
0.0
 70
     1
 40
0
 41
0
  0
VERTEX
  8
0
 10
2.55957
 20
4.25792
 30
0.0
 40
0
 41
0
  0
VERTEX
  8
0
 10
2.56049
 20
4.25879
 30
0.0
 40
0
 41
0
  0
VERTEX
  8
0
 10
2.56657
 20
4.26551
 30
0.0
 40
0
 41
0
  0
VERTEX
  8
0
 10
2.56685
 20
4.266
 30
0.0
 40
0
 41
0
  0
VERTEX
  8
0
 10
2.56706
 20
4.26654
 30
0.0
 40
0
 41
0
  0
VERTEX
  8
0
 10
2.56831
 20
4.27121
 30
0.0
 40
0
 41
0
  0
VERTEX
  8
0
 10
2.56831
 20
4.27274
 30
0.0
 40
0
 41
0
  0
VERTEX
  8
0
 10
2.56831
 20
4.27468
 30
0.0
 40
0
 41
0
  0
VERTEX
  8
0
 10
2.56597
 20
4.28011
 30
0.0
 40
0
 41
0
  0
VERTEX
  8
0
 10
2.56554
 20
4.28054
 30
0.0
 40
0
 41
0
  0
VERTEX
  8
0
 10
2.56506
 20
4.28103
 30
0.0
 40
0
 41
0
  0
VERTEX
  8
0
 10
2.55968
 20
4.28336
 30
0.0
 40
0
 41
0
  0
VERTEX
  8
0
 10
2.55789
 20
4.28336
 30
0.0
 40
0
 41
0
  0
VERTEX
  8
0
 10
2.55587
 20
4.28336
 30
0.0
 40
0
 41
0
  0
VERTEX
  8
0
 10
2.55051
 20
4.28103
 30
0.0
 40
0
 41
0
  0
VERTEX
  8
0
 10
2.55003
 20
4.28054
 30
0.0
 40
0
 41
0
  0
VERTEX
  8
0
 10
2.54949
 20
4.28011
 30
0.0
 40
0
 41
0
  0
VERTEX
  8
0
 10
2.54699
 20
4.27556
 30
0.0
 40
0
 41
0
  0
VERTEX
  8
0
 10
2.54699
 20
4.27403
 30
0.0
 40
0
 41
0
  0
VERTEX
  8
0
 10
2.54699
 20
4.27285
 30
0.0
 40
0
 41
0
  0
VERTEX
  8
0
 10
2.54801
 20
4.26953
 30
0.0
 40
0
 41
0
  0
VERTEX
  8
0
 10
2.54824
 20
4.2691
 30
0.0
 40
0
 41
0
  0
VERTEX
  8
0
 10
2.54839
 20
4.26872
 30
0.0
 40
0
 41
0
  0
VERTEX
  8
0
 10
2.55138
 20
4.26476
 30
0.0
 40
0
 41
0
  0
VERTEX
  8
0
 10
2.55181
 20
4.26438
 30
0.0
 40
0
 41
0
  0
VERTEX
  8
0
 10
2.55957
 20
4.25792
 30
0.0
 40
0
 41
0
  0
SEQEND
 8
0
  0
POLYLINE
  8
0
 62
     0
 66
     1
 10
0
 20
0
 30
0.0
 70
     1
 40
0
 41
0
  0
VERTEX
  8
0
 10
2.55436
 20
4.25103
 30
0.0
 40
0
 41
0
  0
VERTEX
  8
0
 10
2.55371
 20
4.25049
 30
0.0
 40
0
 41
0
  0
VERTEX
  8
0
 10
2.54883
 20
4.24447
 30
0.0
 40
0
 41
0
  0
VERTEX
  8
0
 10
2.54856
 20
4.24382
 30
0.0
 40
0
 41
0
  0
VERTEX
  8
0
 10
2.54824
 20
4.24317
 30
0.0
 40
0
 41
0
  0
VERTEX
  8
0
 10
2.54665
 20
4.23731
 30
0.0
 40
0
 41
0
  0
VERTEX
  8
0
 10
2.54665
 20
4.23535
 30
0.0
 40
0
 41
0
  0
VERTEX
  8
0
 10
2.54665
 20
4.23292
 30
0.0
 40
0
 41
0
  0
VERTEX
  8
0
 10
2.54937
 20
4.22618
 30
0.0
 40
0
 41
0
  0
VERTEX
  8
0
 10
2.54997
 20
4.22553
 30
0.0
 40
0
 41
0
  0
VERTEX
  8
0
 10
2.55051
 20
4.22493
 30
0.0
 40
0
 41
0
  0
VERTEX
  8
0
 10
2.55647
 20
4.22185
 30
0.0
 40
0
 41
0
  0
VERTEX
  8
0
 10
2.55849
 20
4.22185
 30
0.0
 40
0
 41
0
  0
VERTEX
  8
0
 10
2.56054
 20
4.22185
 30
0.0
 40
0
 41
0
  0
VERTEX
  8
0
 10
2.56619
 20
4.22428
 30
0.0
 40
0
 41
0
  0
VERTEX
  8
0
 10
2.56674
 20
4.22478
 30
0.0
 40
0
 41
0
  0
VERTEX
  8
0
 10
2.56722
 20
4.22526
 30
0.0
 40
0
 41
0
  0
VERTEX
  8
0
 10
2.56982
 20
4.23014
 30
0.0
 40
0
 41
0
  0
VERTEX
  8
0
 10
2.56982
 20
4.23178
 30
0.0
 40
0
 41
0
  0
VERTEX
  8
0
 10
2.56982
 20
4.23335
 30
0.0
 40
0
 41
0
  0
VERTEX
  8
0
 10
2.56825
 20
4.23747
 30
0.0
 40
0
 41
0
  0
VERTEX
  8
0
 10
2.56799
 20
4.2379
 30
0.0
 40
0
 41
0
  0
VERTEX
  8
0
 10
2.56739
 20
4.23876
 30
0.0
 40
0
 41
0
  0
VERTEX
  8
0
 10
2.55604
 20
4.24972
 30
0.0
 40
0
 41
0
  0
VERTEX
  8
0
 10
2.55436
 20
4.25103
 30
0.0
 40
0
 41
0
  0
SEQEND
 8
0
  0
POLYLINE
  8
0
 62
     0
 66
     1
 10
0
 20
0
 30
0.0
 40
0.504
 41
0.504
  0
VERTEX
  8
0
 10
2.28336
 20
3.80626
 30
0.0
 40
0.007
 41
0.007
  0
VERTEX
  8
0
 10
2.28336
 20
4.15956
 30
0.0
 40
0.007
 41
0.007
  0
VERTEX
  8
0
 10
2.70247
 20
4.16233
 30
0.0
 40
0.007
 41
0.007
  0
SEQEND
 8
0
  0
ENDSEC
  0
EOF
