  0
SECTION
  2
HEADER
  9
$ACADVER
  1
AC1014
  9
$ACADMAINTVER
 70
  0
  9
$DWGCODEPAGE
  3
ANSI_1252
  9
$INSBASE
 10
0.0
 20
0.0
 30
0.0
  9
$EXTMIN
 10
1.000E+20
 20
1.000E+20
 30
1.000E+20
  9
$EXTMAX
 10
-1.000E+20
 20
-1.000E+20
 30
-1.000E+20
  9
$LIMMIN
 10
1.108
 20
-6.62
  9
$LIMMAX
 10
15.108
 20
5.38
  9
$ORTHOMODE
 70
  0
  9
$REGENMODE
 70
  1
  9
$FILLMODE
 70
  1
  9
$QTEXTMODE
 70
  0
  9
$MIRRTEXT
 70
  1
  9
$DRAGMODE
 70
  0
  9
$LTSCALE
 40
1.0
  9
$OSMODE
 70
  0
  9
$ATTMODE
 70
  1
  9
$TEXTSIZE
 40
0.5
  9
$TRACEWID
 40
1.0
  9
$TEXTSTYLE
  7
STANDARD
  9
$CLAYER
  8
0
  9
$CELTYPE
  6
CONTINUOUS
  9
$CECOLOR
 62
 30
  9
$CELTSCALE
 40
1.0
  9
$DELOBJ
 70
  1
  9
$DISPSILH
 70
  0
  9
$DIMSCALE
 40
1.0
  9
$DIMASZ
 40
0.125
  9
$DIMEXO
 40
0.063
  9
$DIMDLI
 40
0.375
  9
$DIMRND
 40
0.0
  9
$DIMDLE
 40
0.0
  9
$DIMEXE
 40
0.125
  9
$DIMTP
 40
0.0
  9
$DIMTM
 40
0.0
  9
$DIMTXT
 40
0.117
  9
$DIMCEN
 40
0.09
  9
$DIMTSZ
 40
0.0
  9
$DIMTOL
 70
  0
  9
$DIMLIM
 70
  0
  9
$DIMTIH
 70
  1
  9
$DIMTOH
 70
  1
  9
$DIMSE1
 70
  0
  9
$DIMSE2
 70
  0
  9
$DIMTAD
 70
  1
  9
$DIMZIN
 70
  0
  9
$DIMBLK
  1

  9
$DIMASO
 70
  0
  9
$DIMSHO
 70
  1
  9
$DIMPOST
  1
<>in
  9
$DIMAPOST
  1
<>
  9
$DIMALT
 70
  0
  9
$DIMALTD
 70
  2
  9
$DIMALTF
 40
1.0
  9
$DIMLFAC
 40
1.0
  9
$DIMTOFL
 70
  1
  9
$DIMTVP
 40
0.0
  9
$DIMTIX
 70
  1
  9
$DIMSOXD
 70
  0
  9
$DIMSAH
 70
  0
  9
$DIMBLK1
  1

  9
$DIMBLK2
  1

  9
$DIMSTYLE
  2
STANDARD
  9
$DIMCLRD
 70
  7
  9
$DIMCLRE
 70
  7
  9
$DIMCLRT
 70
  7
  9
$DIMTFAC
 40
1.0
  9
$DIMGAP
 40
0.063
  9
$DIMJUST
 70
  0
  9
$DIMSD1
 70
  0
  9
$DIMSD2
 70
  0
  9
$DIMTOLJ
 70
  1
  9
$DIMTZIN
 70
  0
  9
$DIMALTZ
 70
  0
  9
$DIMALTTZ
 70
  0
  9
$DIMFIT
 70
  0
  9
$DIMUPT
 70
  0
  9
$DIMUNIT
 70
  5
  9
$DIMDEC
 70
  4
  9
$DIMTDEC
 70
  4
  9
$DIMALTU
 70
  2
  9
$DIMALTTD
 70
  2
  9
$DIMTXSTY
  7
STANDARD
  9
$DIMAUNIT
 70
  0
  9
$LUNITS
 70
  2
  9
$LUPREC
 70
  2
  9
$SKETCHINC
 40
1.0
  9
$FILLETRAD
 40
1.0
  9
$AUNITS
 70
  0
  9
$AUPREC
 70
  2
  9
$MENU
  1
acad
  9
$ELEVATION
 40
0.0
  9
$PELEVATION
 40
0.0
  9
$THICKNESS
 40
0.0
  9
$LIMCHECK
 70
  0
  9
$BLIPMODE
 70
  1
  9
$CHAMFERA
 40
0.0
  9
$CHAMFERB
 40
0.0
  9
$CHAMFERC
 40
0.0
  9
$CHAMFERD
 40
0.0
  9
$SKPOLY
 70
  0
  9
$TDCREATE
 40
0.000000000
  9
$TDUPDATE
 40
0.000000000
  9
$TDINDWG
 40
0.0000000000
  9
$TDUSRTIMER
 40
0.0000000000
  9
$USRTIMER
 70
  1
  9
$ANGBASE
 50
0.0
  9
$ANGDIR
 70
  0
  9
$PDMODE
 70
  0
  9
$PDSIZE
 40
0.0
  9
$PLINEWID
 40
0.0
  9
$COORDS
 70
  0
  9
$SPLFRAME
 70
  0
  9
$SPLINETYPE
 70
  6
  9
$SPLINESEGS
 70
 20
  9
$ATTDIA
 70
  0
  9
$ATTREQ
 70
  1
  9
$HANDLING
 70
  1
  9
$HANDSEED
  5
41
  9
$SURFTAB1
 70
  6
  9
$SURFTAB2
 70
  6
  9
$SURFTYPE
 70
  6
  9
$SURFU
 70
  6
  9
$SURFV
 70
  6
  9
$UCSNAME
  2

  9
$UCSORG
 10
0.0
 20
0.0
 30
0.0
  9
$UCSXDIR
 10
1.0
 20
0.0
 30
0.0
  9
$UCSYDIR
 10
0.0
 20
1.0
 30
0.0
  9
$PUCSNAME
  2

  9
$PUCSORG
 10
0.0
 20
0.0
 30
0.0
  9
$PUCSXDIR
 10
1.0
 20
0.0
 30
0.0
  9
$PUCSYDIR
 10
0.0
 20
1.0
 30
0.0
  9
$USERI1
 70
  0
  9
$USERI2
 70
  0
  9
$USERI3
 70
  0
  9
$USERI4
 70
  0
  9
$USERI5
 70
  0
  9
$USERR1
 40
0.0
  9
$USERR2
 40
0.0
  9
$USERR3
 40
0.0
  9
$USERR4
 40
0.0
  9
$USERR5
 40
0.0
  9
$WORLDVIEW
 70
  1
  9
$SHADEDGE
 70
  3
  9
$SHADEDIF
 70
 70
  9
$TILEMODE
 70
  0
  9
$MAXACTVP
 70
 16
  9
$PINSBASE
 10
0.0
 20
0.0
 30
0.0
  9
$PLIMCHECK
 70
  0
  9
$PEXTMIN
 10
1.25
 20
-1.25
 30
0.0
  9
$PEXTMAX
 10
9.75
 20
9.75
 30
0.0
  9
$PLIMMIN
 10
1.25
 20
-1.25
  9
$PLIMMAX
 10
9.75
 20
9.75
  9
$UNITMODE
 70
  0
  9
$VISRETAIN
 70
  0
  9
$PLINEGEN
 70
  1
  9
$PSLTSCALE
 70
  1
  9
$TREEDEPTH
 70
3020
  9
$PICKSTYLE
 70
  1
  9
$CMLSTYLE
  2
STANDARD
  9
$CMLJUST
 70
  0
  9
$CMLSCALE
 40
1.0
  9
$PROXYGRAPHICS
 70
  0
  9
$MEASUREMENT
 70
  0
  0
ENDSEC
  0
SECTION
  2
CLASSES
  0
CLASS
  1
LWPOLYLINE
  2
AcDbPolyline
  3
"AutoCAD"
 90
        0
280
  0
281
  1
  0
CLASS
  1
IMAGE
  2
AcDbRasterImage
  3
ISM
 90
      127
280
  0
281
  1
  0
CLASS
  1
OLE2FRAME
  2
AcDbOle2Frame
  3
""
 90
        0
280
  0
281
  1
  0
CLASS
  1
HATCH
  2
AcDbHatch
  3
"ACAD_SEDONA"
 90
        0
280
  0
281
  1
  0
CLASS
  1
DICTIONARYVAR
  2
AcDbDictionaryVar
  3
"AutoCAD"
 90
        0
280
  0
281
  0
  0
CLASS
  1
RASTERVARIABLES
  2
AcDbRasterVariables
  3
ISM
 90
        0
280
  0
281
  0
  0
CLASS
  1
IMAGEDEF
  2
AcDbRasterImageDef
  3
ISM
 90
        0
280
  0
281
  0
  0
CLASS
  1
IMAGEDEF_REACTOR
  2
AcDbRasterImageDefReactor
  3
ISM
 90
        1
280
  0
281
  0
  0
CLASS
  1
IDBUFFER
  2
AcDbIdBuffer
  3
"Acad"
 90
        0
280
  0
281
  0
  0
CLASS
  1
SPATIAL_FILTER
  2
AcDbSpatialFilter
  3
"Acad"
 90
        0
280
  0
281
  0
  0
CLASS
  1
XRECORD
  2
AcDbXrecord
  3
"<Built In>"
 90
        0
280
  0
281
  0
  0
CLASS
  1
SORTENTSTABLE
  2
AcDbSortentsTable
  3
"AutoCAD"
 90
        0
280
  0
281
  0
  0
CLASS
  1
LAYER_INDEX
  2
AcDbLayerIndex
  3
"Acad"
 90
        0
280
  0
281
  0
  0
CLASS
  1
SPATIAL_INDEX
  2
AcDbSpatialIndex
  3
"Acad"
 90
        0
280
  0
281
  0
  0
CLASS
  1
OBJECT_PTR
  2
CAseDLPNTableRecord
  3
"ASE-LPNTableRecord"
 90
        1
280
  0
281
  0
  0
CLASS
  1
LAYOUT
  2
AcDbLayout
  3
"AutoCAD 2000"
 90
        1
280
  0
281
  0
  0
CLASS
  1
PLOTSETTINGS
  2
AcDbPlotSettings
  3
"AutoCAD 2000"
 90
        1
280
  0
281
  0
  0
CLASS
  1
ACDBDICTIONARYWDFLT
  2
AcDbDictionaryWithDefault
  3
"AutoCAD 2000"
 90
        1
280
  0
281
  0
  0
CLASS
  1
ACDBPLACEHOLDER
  2
AcDbPlaceHolder
  3
"AutoCAD 2000"
 90
        1
280
  0
281
  0
  0
ENDSEC
  0
SECTION
  2
TABLES
  0
TABLE
  2
VPORT
  5
7
100
AcDbSymbolTable
 70
  1
  0
VPORT
  5
15
100
AcDbSymbolTableRecord
100
AcDbViewportTableRecord
  2
*ACTIVE
 70
  0
 10
0.0
 20
0.0
 11
1.0
 21
1.0
 12
4.219
 22
4.57
 13
0.0
 23
0.0
 14
0.5
 24
0.5
 15
0.5
 25
0.5
 16
0.0
 26
0.0
 36
1.0
 17
0.0
 27
0.0
 37
0.0
 40
8.887
 41
1.695
 42
50.0
 43
0.0
 44
0.0
 50
0.0
 51
0.0
 71
  0
 72
100
 73
  1
 74
  1
 75
  0
 76
  0
 77
  0
 78
  0
  0
ENDTAB
  0
TABLE
  2
LTYPE
  5
4
100
AcDbSymbolTable
 70
 15
  0
LTYPE
  5
11
100
AcDbSymbolTableRecord
100
AcDbLinetypeTableRecord
  2
BYBLOCK
 70
 64
  3

 72
 65
 73
  0
 40
0.0
  0
LTYPE
  5
12
100
AcDbSymbolTableRecord
100
AcDbLinetypeTableRecord
  2
BYLAYER
 70
 64
  3

 72
 65
 73
  0
 40
0.0
  0
LTYPE
  5
13
100
AcDbSymbolTableRecord
100
AcDbLinetypeTableRecord
  2
CONTINUOUS
 70
 64
  3
Solid line
 72
 65
 73
  0
 40
0.0
  0
LTYPE
  5
1E
100
AcDbSymbolTableRecord
100
AcDbLinetypeTableRecord
  2
BORDER
 70
  0
  3
BORDER
 72
 65
 73
  6
 40
1.75
 49
0.5
 74
  0
 49
-0.25
 74
  0
 49
0.5
 74
  0
 49
-0.25
 74
  0
 49
0.0
 74
  0
 49
-0.25
 74
  0
  0
LTYPE
  5
1F
100
AcDbSymbolTableRecord
100
AcDbLinetypeTableRecord
  2
CENTER
 70
  0
  3
CENTER
 72
 65
 73
  4
 40
2.0
 49
1.25
 74
  0
 49
-0.25
 74
  0
 49
0.25
 74
  0
 49
-0.25
 74
  0
  0
LTYPE
  5
20
100
AcDbSymbolTableRecord
100
AcDbLinetypeTableRecord
  2
DASHDOT
 70
  0
  3
DASHDOT
 72
 65
 73
  4
 40
1.0
 49
0.5
 74
  0
 49
-0.25
 74
  0
 49
0.0
 74
  0
 49
-0.25
 74
  0
  0
LTYPE
  5
21
100
AcDbSymbolTableRecord
100
AcDbLinetypeTableRecord
  2
DASHED
 70
  0
  3
DASHED
 72
 65
 73
  2
 40
0.75
 49
0.5
 74
  0
 49
-0.25
 74
  0
  0
LTYPE
  5
22
100
AcDbSymbolTableRecord
100
AcDbLinetypeTableRecord
  2
DIVIDE
 70
  0
  3
DIVIDE
 72
 65
 73
  6
 40
1.25
 49
0.5
 74
  0
 49
-0.25
 74
  0
 49
0.0
 74
  0
 49
-0.25
 74
  0
 49
0.0
 74
  0
 49
-0.25
 74
  0
  0
LTYPE
  5
23
100
AcDbSymbolTableRecord
100
AcDbLinetypeTableRecord
  2
DOT
 70
  0
  3
DOT
 72
 65
 73
  2
 40
0.25
 49
0.0
 74
  0
 49
-0.25
 74
  0
  0
LTYPE
  5
24
100
AcDbSymbolTableRecord
100
AcDbLinetypeTableRecord
  2
HIDDEN
 70
  0
  3
HIDDEN
 72
 65
 73
  2
 40
0.375
 49
0.25
 74
  0
 49
-0.125
 74
  0
  0
LTYPE
  5
25
100
AcDbSymbolTableRecord
100
AcDbLinetypeTableRecord
  2
PHANTOM
 70
  0
  3
PHANTOM
 72
 65
 73
  6
 40
2.5
 49
1.25
 74
  0
 49
-0.25
 74
  0
 49
0.25
 74
  0
 49
-0.25
 74
  0
 49
0.25
 74
  0
 49
-0.25
 74
  0
  0
LTYPE
  5
26
100
AcDbSymbolTableRecord
100
AcDbLinetypeTableRecord
  2
$INVISIBLE
 70
  0
  3
$INVISIBLE
 72
 65
 73
  2
 40
200.0
 49
-100.0
 74
  0
 49
-100.0
 74
  0
  0
LTYPE
  5
27
100
AcDbSymbolTableRecord
100
AcDbLinetypeTableRecord
  2
$SNAPEXT
 70
  0
  3
$SNAPEXT
 72
 65
 73
  2
 40
0.04
 49
0.02
 74
  0
 49
-0.02
 74
  0
  0
LTYPE
  5
28
100
AcDbSymbolTableRecord
100
AcDbLinetypeTableRecord
  2
$CONSTRUCTION
 70
  0
  3
$CONSTRUCTION
 72
 65
 73
  4
 40
0.3
 49
0.2
 74
  0
 49
-0.05
 74
  0
 49
0.0
 74
  0
 49
-0.05
 74
  0
  0
LTYPE
  5
29
100
AcDbSymbolTableRecord
100
AcDbLinetypeTableRecord
  2
$AUXILIARY
 70
  0
  3
$AUXILIARY
 72
 65
 73
  2
 40
0.1
 49
0.05
 74
  0
 49
-0.05
 74
  0
  0
ENDTAB
  0
TABLE
  2
LAYER
  5
2
100
AcDbSymbolTable
 70
  5
  0
LAYER
  5
14
100
AcDbSymbolTableRecord
100
AcDbLayerTableRecord
  2
0
 70
  0
 62
  7
  6
CONTINUOUS
1001
TCAD
1000
TCW_LAYER_ORDER
1002
{
1071
        0
1002
}
  0
LAYER
  5
2A
100
AcDbSymbolTableRecord
100
AcDbLayerTableRecord
  2
$CONSTRUCTION
 70
  0
 62
  9
  6
$CONSTRUCTION
1001
TCAD
1000
TCW_LAYER_ORDER
1002
{
1071
        0
1002
}
  0
LAYER
  5
2B
100
AcDbSymbolTableRecord
100
AcDbLayerTableRecord
  2
LAYER_1
 70
  0
 62
  7
  6
CONTINUOUS
1001
TCAD
1000
TCW_LAYER_ORDER
1002
{
1071
        0
1002
}
  0
LAYER
  5
2C
100
AcDbSymbolTableRecord
100
AcDbLayerTableRecord
  2
LAYER_2
 70
  0
 62
  7
  6
CONTINUOUS
1001
TCAD
1000
TCW_LAYER_ORDER
1002
{
1071
        0
1002
}
  0
LAYER
  5
2D
100
AcDbSymbolTableRecord
100
AcDbLayerTableRecord
  2
7
 70
  0
 62
  7
  6
CONTINUOUS
1001
TCAD
1000
TCW_LAYER_ORDER
1002
{
1071
        0
1002
}
  0
ENDTAB
  0
TABLE
  2
STYLE
  5
3
100
AcDbSymbolTable
 70
  3
  0
STYLE
  5
17
100
AcDbSymbolTableRecord
100
AcDbTextStyleTableRecord
  2
STANDARD
 70
  0
 40
0.0
 41
1.0
 50
0.0
 71
  0
 42
0.15
  3
ARIAL.TTF
  4

1001
ACAD
1000
Arial
1071
       34
  0
STYLE
  5
2F
100
AcDbSymbolTableRecord
100
AcDbTextStyleTableRecord
  2
_TCW_TXTSTY_1
 70
  0
 40
0.0
 41
1.0
 50
0.0
 71
  0
 42
0.6
  3
TIMES.TTF
  4

1001
ACAD
1000
Times New Roman
1071
      290
  0
STYLE
  5
3E
100
AcDbSymbolTableRecord
100
AcDbTextStyleTableRecord
  2
_TCW_TXTSTY_2
 70
  0
 40
0.0
 41
1.22
 50
0.0
 71
  0
 42
0.087
  3
TIMES.TTF
  4

1001
ACAD
1000
Times New Roman
1071
      290
  0
ENDTAB
  0
TABLE
  2
VIEW
  5
5
100
AcDbSymbolTable
 70
  1
  0
VIEW
  5
2E
100
AcDbSymbolTableRecord
100
AcDbViewTableRecord
  2
VIEW_0
 70
  0
 40
8.268
 10
5.846
 20
4.134
 41
11.693
 11
0.0
 21
0.0
 31
1.0
 12
0.0
 22
0.0
 32
1.0
 42
50.0
 43
0.0
 44
0.0
 50
0.0
 71
  0
  0
ENDTAB
  0
TABLE
  2
UCS
  5
6
100
AcDbSymbolTable
 70
  0
  0
ENDTAB
  0
TABLE
  2
APPID
  5
8
100
AcDbSymbolTable
 70
  2
  0
APPID
  5
16
100
AcDbSymbolTableRecord
100
AcDbRegAppTableRecord
  2
ACAD
 70
  0
  0
APPID
  5
1D
100
AcDbSymbolTableRecord
100
AcDbRegAppTableRecord
  2
TCAD
 70
  0
  0
ENDTAB
  0
TABLE
  2
DIMSTYLE
  5
9
100
AcDbSymbolTable
 70
  1
  0
DIMSTYLE
105
18
100
AcDbSymbolTableRecord
100
AcDbDimStyleTableRecord
  2
STANDARD
 70
  0
  3
<>in
  4
<>
  5

  6

  7

 40
1.0
 41
0.125
 42
0.063
 43
0.375
 44
0.125
 45
0.0
 46
0.0
 47
0.0
 48
0.0
 71
  0
 72
  0
 73
  1
 74
  1
 75
  0
 76
  0
 77
  1
 78
  0
140
0.117
141
0.09
142
0.0
143
1.0
144
1.0
145
0.0
146
1.0
147
0.063
170
  0
171
  2
172
  1
173
  0
174
  1
175
  0
176
  7
177
  7
178
  7
270
  5
271
  4
272
  4
273
  2
274
  2
275
  0
280
  0
281
  0
282
  0
283
  1
284
  0
285
  0
286
  0
287
  0
288
  0
340
2F
  0
ENDTAB
  0
TABLE
  2
BLOCK_RECORD
  5
1
100
AcDbSymbolTable
 70
  0
  0
BLOCK_RECORD
  5
A
100
AcDbSymbolTableRecord
100
AcDbBlockTableRecord
  2
*MODEL_SPACE
  0
BLOCK_RECORD
  5
B
100
AcDbSymbolTableRecord
100
AcDbBlockTableRecord
  2
*PAPER_SPACE
  0
ENDTAB
  0
ENDSEC
  0
SECTION
  2
BLOCKS
  0
BLOCK
  5
D
100
AcDbEntity
  8
0
100
AcDbBlockBegin
  2
*MODEL_SPACE
 70
  0
 10
0.0
 20
0.0
 30
0.0
  3
*MODEL_SPACE
  1

  0
ENDBLK
  5
E
100
AcDbEntity
  8
0
100
AcDbBlockEnd
  0
BLOCK
  5
F
100
AcDbEntity
 67
  1
  8
0
100
AcDbBlockBegin
  2
*PAPER_SPACE
 70
  0
 10
0.0
 20
0.0
 30
0.0
  3
*PAPER_SPACE
  1

  0
ENDBLK
  5
10
100
AcDbEntity
 67
  1
  8
0
100
AcDbBlockEnd
  0
ENDSEC
  0
SECTION
  2
ENTITIES
  0
VIEWPORT
  5
30
100
AcDbEntity
 67
  1
  8
0
100
AcDbViewport
 10
5.519
 20
2.923
 30
0.0
 40
15.064
 41
8.808
 68
  1
 69
  1
1001
ACAD
1000
MVIEW
1002
{
1070
 16
1010
0.0
1020
0.0
1030
0.0
1010
0.0
1020
0.0
1030
1.0
1040
0.0
1040
8.808
1040
5.519
1040
2.923
1040
50.0
1040
0.0
1040
0.0
1070
  0
1070
100
1070
  0
1070
  1
1070
  0
1070
  0
1070
  0
1070
  0
1040
0.0
1040
0.0
1040
0.0
1040
0.5
1040
0.5
1040
0.5
1040
0.5
1070
  0
1002
{
1002
}
1002
}
  0
ARC
  5
31
100
AcDbEntity
 67
  1
  8
0
  6
CONTINUOUS
 62
  7
100
AcDbCircle
 10
3.368
 20
5.783
 30
0.0
 40
1.109
100
AcDbArc
 50
-124.505
 51
-121.894
1001
ACAD
1000
TCW40_DEV_WIDTH
1002
{
1040
0.008
1002
}
1001
TCAD
1000
TCW_REFPOINT
1002
{
1010
2.573
1020
5.069
1030
0.0
1002
}
  0
LWPOLYLINE
  5
32
100
AcDbEntity
 67
  1
  8
0
  6
CONTINUOUS
 62
  7
100
AcDbPolyline
 90
        3
 70
  0
 43
0.008
 10
2.844
 20
5.389
 42
-0.107
 10
3.113
 20
5.09
 42
0.106
 10
3.357
 20
4.842
1001
TCAD
1000
TCW_REFPOINT
1002
{
1010
3.2
1020
5.038
1030
0.0
1002
}
  0
LWPOLYLINE
  5
33
100
AcDbEntity
 67
  1
  8
0
  6
CONTINUOUS
 62
  7
100
AcDbPolyline
 90
        3
 70
  0
 43
0.008
 10
3.447
 20
5.392
 42
-0.107
 10
3.703
 20
5.087
 42
0.074
 10
3.93
 20
4.838
1001
TCAD
1000
TCW_REFPOINT
1002
{
1010
3.983
1020
5.04
1030
0.0
1002
}
  0
LWPOLYLINE
  5
34
100
AcDbEntity
 67
  1
  8
0
  6
CONTINUOUS
 62
  7
100
AcDbPolyline
 90
        3
 70
  0
 43
0.008
 10
4.038
 20
5.391
 42
-0.068
 10
4.263
 20
5.09
 42
0.091
 10
4.519
 20
4.855
1001
TCAD
1000
TCW_REFPOINT
1002
{
1010
4.757
1020
5.038
1030
0.0
1002
}
  0
LWPOLYLINE
  5
35
100
AcDbEntity
 67
  1
  8
0
  6
CONTINUOUS
 62
  7
100
AcDbPolyline
 90
        3
 70
  0
 43
0.008
 10
4.595
 20
5.402
 42
-0.076
 10
4.865
 20
5.089
 42
0.089
 10
5.087
 20
4.851
1001
TCAD
1000
TCW_REFPOINT
1002
{
1010
4.938
1020
5.022
1030
0.0
1002
}
  0
LWPOLYLINE
  5
36
100
AcDbEntity
 67
  1
  8
0
  6
CONTINUOUS
 62
  7
100
AcDbPolyline
 90
        3
 70
  0
 43
0.008
 10
5.152
 20
5.4
 42
-0.115
 10
5.422
 20
5.102
 42
0.112
 10
5.649
 20
4.855
1001
TCAD
1000
TCW_REFPOINT
1002
{
1010
5.497
1020
5.019
1030
0.0
1002
}
  0
LWPOLYLINE
  5
37
100
AcDbEntity
 67
  1
  8
0
  6
CONTINUOUS
 62
  7
100
AcDbPolyline
 90
        3
 70
  0
 43
0.008
 10
5.717
 20
5.405
 42
-0.08
 10
5.983
 20
5.093
 42
0.086
 10
6.206
 20
4.857
1001
TCAD
1000
TCW_REFPOINT
1002
{
1010
6.053
1020
5.025
1030
0.0
1002
}
  0
LWPOLYLINE
  5
38
100
AcDbEntity
 67
  1
  8
0
  6
CONTINUOUS
 62
  7
100
AcDbPolyline
 90
        5
 70
  0
 43
0.008
 10
2.664
 20
5.473
 42
-0.164
 10
2.808
 20
5.248
 42
-0.141
 10
2.824
 20
4.979
 42
-0.259
 10
2.74
 20
4.867
 42
-0.353
 10
2.665
 20
4.768
1001
TCAD
1000
TCW_REFPOINT
1002
{
1010
2.774
1020
5.013
1030
0.0
1002
}
  0
LWPOLYLINE
  5
39
100
AcDbEntity
 67
  1
  8
0
  6
CONTINUOUS
 62
  7
100
AcDbPolyline
 90
        3
 70
  0
 43
0.008
 10
6.284
 20
5.407
 42
-0.104
 10
6.554
 20
5.093
 42
0.121
 10
6.777
 20
4.862
1001
TCAD
1000
TCW_REFPOINT
1002
{
1010
6.62
1020
5.027
1030
0.0
1002
}
  0
LWPOLYLINE
  5
3A
100
AcDbEntity
 67
  1
  8
0
  6
CONTINUOUS
 62
  7
100
AcDbPolyline
 90
        3
 70
  0
 43
0.008
 10
6.848
 20
5.405
 42
-0.123
 10
7.131
 20
5.087
 42
0.13
 10
7.351
 20
4.869
1001
TCAD
1000
TCW_REFPOINT
1002
{
1010
7.184
1020
5.025
1030
0.0
1002
}
  0
LWPOLYLINE
  5
3B
100
AcDbEntity
 67
  1
  8
0
  6
CONTINUOUS
 62
  7
100
AcDbPolyline
 90
        3
 70
  0
 43
0.008
 10
7.425
 20
5.407
 42
-0.116
 10
7.692
 20
5.095
 42
0.12
 10
7.92
 20
4.87
1001
TCAD
1000
TCW_REFPOINT
1002
{
1010
7.761
1020
5.027
1030
0.0
1002
}
  0
LWPOLYLINE
  5
3C
100
AcDbEntity
 67
  1
  8
0
  6
CONTINUOUS
 62
  7
100
AcDbPolyline
 90
       41
 70
  1
 43
0.014
 10
8.029
 20
4.885
 42
0.487
 10
7.986
 20
5.435
 42
0.063
 10
7.802
 20
5.489
 42
0.206
 10
7.425
 20
5.414
 42
0.069
 10
7.256
 20
5.487
 42
0.229
 10
6.857
 20
5.41
 42
0.023
 10
6.655
 20
5.489
 42
0.191
 10
6.283
 20
5.404
 42
0.069
 10
6.106
 20
5.485
 42
0.251
 10
5.723
 20
5.404
 42
0.084
 10
5.548
 20
5.481
 42
0.236
 10
5.151
 20
5.409
 42
0.09
 10
4.962
 20
5.481
 42
0.212
 10
4.59
 20
5.404
 42
0.076
 10
4.427
 20
5.471
 42
0.272
 10
4.026
 20
5.394
 42
0.08
 10
3.867
 20
5.471
 42
0.235
 10
3.448
 20
5.392
 42
0.061
 10
3.313
 20
5.457
 42
0.252
 10
2.844
 20
5.388
 42
0.179
 10
2.663
 20
5.474
 10
2.663
 20
4.766
 42
0.09
 10
2.782
 20
4.841
 42
0.126
 10
3.128
 20
4.757
 42
0.215
 10
3.357
 20
4.843
 42
0.141
 10
3.723
 20
4.756
 42
0.213
 10
3.931
 20
4.837
 42
0.161
 10
4.346
 20
4.77
 42
0.144
 10
4.518
 20
4.855
 42
0.156
 10
4.885
 20
4.768
 42
0.161
 10
5.085
 20
4.851
 42
0.117
 10
5.425
 20
4.77
 42
0.232
 10
5.646
 20
4.855
 42
0.161
 10
6.009
 20
4.776
 42
0.196
 10
6.206
 20
4.856
 42
0.149
 10
6.576
 20
4.78
 42
0.178
 10
6.776
 20
4.861
 42
0.144
 10
7.137
 20
4.786
 42
0.195
 10
7.351
 20
4.871
 42
0.15
 10
7.706
 20
4.786
 42
0.143
 10
7.921
 20
4.87
 42
0.291
  0
TEXT
  5
3D
100
AcDbEntity
 67
  1
  8
0
  6
CONTINUOUS
 62
  7
100
AcDbText
 10
4.444
 20
2.982
 30
0.0
 40
0.133
  1
Rope Moulding #6674
  7
_TCW_TXTSTY_1
 11
4.444
 21
3.115
 31
0.0
100
AcDbText
 73
  3
1001
TCAD
1000
TCW40_TEXT
1002
{
1000
Times New Roman
1070
  0
1070
257
1002
}
  0
MTEXT
  5
3F
100
AcDbEntity
 67
  1
  8
0
  6
CONTINUOUS
 62
  7
100
AcDbMText
 10
4.444
 20
2.706
 30
0.0
 40
0.087
 41
1.35
 71
  1
 72
  1
  1
{Saroyan Lumber Co.\P(800) 624-9309}
  7
_TCW_TXTSTY_2
1001
TCAD
1000
TCW_REFPOINT
1002
{
1010
4.444
1020
2.597
1030
0.0
1002
}
1001
TCAD
1000
TCW40_TEXT
1002
{
1000
Times New Roman
1070
  0
1070
257
1002
}
  0
TEXT
  5
40
100
AcDbEntity
 67
  1
  8
0
  6
CONTINUOUS
 62
  7
100
AcDbText
 10
4.444
 20
2.801
 30
0.0
 40
0.1
  1
3/8 x 3/4
  7
_TCW_TXTSTY_1
 11
4.444
 21
2.901
 31
0.0
100
AcDbText
 73
  3
1001
TCAD
1000
TCW_REFPOINT
1002
{
1010
4.444
1020
2.934
1030
0.0
1002
}
1001
TCAD
1000
TCW40_TEXT
1002
{
1000
Times New Roman
1070
  0
1070
257
1002
}
  0
ENDSEC
  0
SECTION
  2
OBJECTS
  0
DICTIONARY
  5
19
100
AcDbDictionary
  3
ACAD_GROUP
350
1A
  3
ACAD_MLINESTYLE
350
1B
  0
DICTIONARY
  5
1A
102
{ACAD_REACTORS
330
19
102
}
100
AcDbDictionary
  0
DICTIONARY
  5
1B
102
{ACAD_REACTORS
330
19
102
}
100
AcDbDictionary
  3
STANDARD
350
1C
  0
MLINESTYLE
  5
1C
100
AcDbMlineStyle
  2
STANDARD
 70
  0
  3

 62
256
 51
90.0
 52
90.0
 71
  3
 49
0.25
 62
  7
  6
BYLAYER
 49
0.0
 62
  7
  6
BYLAYER
 49
-0.25
 62
  7
  6
BYLAYER
  0
ENDSEC
  0
EOF
